Oops, an error
Loading. Please wait.

Reading The Wrappers tab

49 views 1 this week
no commentswrite comment
1 2 3 4 5
3 more votes to show rating
add to favorites
×
Save as Personal and add changes to this tab that will be seen only by you. Learn more ›
×
You can save this tab as Personal to edit and correct it or add notes. All changes will be seen only by you. Learn more »
launch autoscroll
font size
0
reset
how to read this tab
guitar tuner
edit
Autoscroll
slow
fast
+/-
esc
set tempo
stop
Author
[Intro]

e|---------------------------------------------------------------------------|
B|---------------------------------------------------------------------------|
G|---------------------------------------------------------------------------|
D|------5-----5---0---------0---2-------5-----5---0---------0---2------------|
A|--3-3---3-3---3-------3-----3---3-3-3---3-3---3-------3-----3---3----------|
E|------------------1-1---1-------------------------1-1---1------------------|

e|---------------------------------------------------------------------------|
B|---------------------------------------------------------------------------|
G|---------------------------------------------------------------------------|
D|-----5-----5---0---------0---2---------------------------------------------|
A|-3-3---3-3---3-------3-----3---3-----5-----5---3-----3-----6---6-----------|
E|-----------------1-1---1---------3-3---3-3---3---1-1---1-4---4-------------|


[Verse]

e|---------------------------------------------------------------------------|
B|---------------------------------------------------------------------------|
G|---------------------------------------------------------------------------|
D|------5-----5---0---------0---2-------5-----5---0---------0---2------------|
A|--3-3---3-3---3-------3-----3---3-3-3---3-3---3-------3-----3---3----------|
E|------------------1-1---1-------------------------1-1---1------------------|

your parents are sat in the car they're wondering what is the matter

e|---------------------------------------------------------------------------|
B|---------------------------------------------------------------------------|
G|---------------------------------------------------------------------------|
D|-----5-----5---0---------0---2---------------------------------------------|
A|-3-3---3-3---3-------3-----3---3-----5-----5---3-----3-----6---6-----------|
E|-----------------1-1---1---------3-3---3-3---3---1-1---1-4---4-------------|

and they are eating sweets and reading the wrappers

e|---------------------------------------------------------------------------|
B|---------------------------------------------------------------------------|
G|---------------------------------------------------------------------------|
D|------5-----5---0---------0---2-------5-----5---0---------0---2------------|
A|--3-3---3-3---3-------3-----3---3-3-3---3-3---3-------3-----3---3----------|
E|------------------1-1---1-------------------------1-1---1------------------|

and there is no one else around the shale as grey as the weather

e|---------------------------------------------------------------------------|
B|---------------------------------------------------------------------------|
G|---------------------------------------------------------------------------|
D|-----5-----5---0---------0---2---------------------------------------------|
A|-3-3---3-3---3-------3-----3---3-----5-----5---3-----3-----6---6-----------|
E|-----------------1-1---1---------3-3---3-3---3---1-1---1-4---4-------------|

and you are crouching on the ground for what seems like forever



G                    F                C                        Am
   and i'm sorry for running away but they will be playing his records all day
G                     F 
   and you turn to me baby and say
        C                        D               E               F
"we can run on this beach for as long you need to if that's what helps
Bb     C                 D           E                    C
we can kick every pebble into the sea til there's nothing left

if that's what helps

e|---------------------------------------------------------------------------|
B|---------------------------------------------------------------------------|
G|---------------------------------------------------------------------------|
D|------5-----5---0---------0---2-------5-----5---0---------0---2------------|
A|--3-3---3-3---3-------3-----3---3-3-3---3-3---3-------3-----3---3----------|
E|------------------1-1---1-------------------------1-1---1------------------|

you deal with his death

e|---------------------------------------------------------------------------|
B|---------------------------------------------------------------------------|
G|---------------------------------------------------------------------------|
D|------5-----5---0---------0---2-------5-----5---0---------0---2------------|
A|--3-3---3-3---3-------3-----3---3-3-3---3-3---3-------3-----3---3----------|
E|------------------1-1---1-------------------------1-1---1------------------|

but are you sure there's nothing else making you upset?"

e|-----------------------------------|
B|-----------------------------------|
G|-----------------------------------|
D|-----------------------------------|
A|------5-----5---3----6-6-----------|
E|--3-3---3-3---3---1--4-4-----------|

[verse]

C             F     Am      C                    F             A
  to take the ferry harbour-bound i guess that's where we were headed
C            F        Am    G                  F         Ab
  with nonchalance it was announced i guess it took me a second
C          F         Am     C                   F             Am
  and i am sprinting on the sand like there's a thing i've forgotten
C          F      Am      G                 F       Ab
  and i am windmilling my arms guess it's a thing i do often



G                    F                C                        Am
   and i'm sorry for running away but they will be playing his records all day
G                     F 
   and you turn to me baby and say
        C                        D               E               F
"we can run on this beach for as long you need to if that's what helps
Bb     C                 D           E                    C
we can kick every pebble into the sea til there's nothing left
Bb             C    F    Am        C          F   Am
if that's what helps you deal with his death
            C                    F           Am            C   F   Am
but are you sure there's nothing else making you upset?"
        C             D       E               F
"we can talk about it, we can do whatever you need
Bb      C                      D                    E      F
baby my parents are happy just reading the wrappers, and i love you"

[Outro]
    C        F      Am  C        F      Am     C        F       Am
e|---------------------------------------------------------------------------|
B|--8--6--5--3h5-3-1----8--6--5--3h5-3-1-3/5---8--6--5--3h5-3-1--------------|
G|---------------------------------------------------------------------------|
D|---------------------------------------------------------------------------|
A|---------------------------------------------------------------------------|
E|---------------------------------------------------------------------------|

ooooooooooooooooh
   
    G        F       Ab
e|---------------------------------------------------------------------------|
B|--8--6--5--3h5-3-1-1/4-4-4-------------------------------------------------|
G|---------------------------------------------------------------------------|
D|---------------------------------------------------------------------------|
A|---------------------------------------------------------------------------|
E|---------------------------------------------------------------------------|

ooooooooooooooooooh
Suggest correction
Creating personal tab
Creating personal tab
You can edit any tab online and save it as your Personal.

You can edit, replace or remove any tab part or add personal notes – all changes will be seen only by you.

Personal tabs can be accessed anytime from any device, even offline.
Learn more »
Give kudos to tab author, rate the tab!
1 2 3 4 5
comments
print report bad tab
guest
You may want to rate the tab now too:
select rating
Wanna post a correction for this tab? Suggest correction