Oops, an error
Loading. Please wait.

Hover tab

version 3
version 3

Whole song

Interactive

141 views 1 this week
no commentswrite comment
1 2 3 4 5
1 last vote to show rating
add to favorites
×
Save as Personal and add changes to this tab that will be seen only by you. Learn more ›
×
You can save this tab as Personal to edit and correct it or add notes. All changes will be seen only by you. Learn more »
launch autoscroll
font size
0
reset
how to read this tab
guitar tuner
edit
Autoscroll
slow
fast
+/-
esc
set tempo
stop
-------------------------------------------------------------------------------
                             Hover - Trustcompany
-------------------------------------------------------------------------------
Saw a few tabs on here that didn't quite have it right. Kudos to Andrew M and Fenderman 
to breaking ground.
Guys a lot of these are suspended chords, you will hear it.

video for help https://www.youtube.com/watch?v=ic2mJT0q5BU

Tuning:  Drop C#

Guitar 2: Effect:  Clean sound with chorus pedal
|--------5---------5--------5-------------------------------------------------|
|-----------------------------5---(4 times)-----------------------------------|
|------6-------6--------6-----------------------------------------------------|
|----0------0---------0-------------------------------------------------------|
|-----------------------------------------------------------------------------|
|-----------------------------------------------------------------------------|
Guitar 1: Distortion
|----------------------------------------------------------------------------|
|----------------------------------------------------------------------------|
|-11-11-11-11-14-14--14--14-(7)(7)(7)(7)(7)(7)(7)(7)-------------------------|
|-11-11-11-11-14-14--14--14--7--7--7--7--7--7--7--7--------------------------|
|-9--9--9--9--12-12--12--12--5--5--5--5--5--5--5--5----(4 times)-------------|
|-9--9--9--9--12-12--12--12--5--5--5--5--5--5--5--5--------------------------|

Verse: Guitar 1
|----------------------------------------------------------------|
|----------------------------------------------------------------|
|----------------------------------------------------------------|
|-4--4--4-4--4-6--6-6-0-0-0-0-0---------(4 times)----------------|
|-4--4--4-4--4-4--4-4-0-0-0-0-0----------------------------------|
|-4--4--4-4--4-4--4-4-0-0-0-0-0----------------------------------|


Pre-chorus:
|---------------------------------------------------------------------------|
|---------------------------------------------------------------------------|
|---------------------------------------------------------------------------|
|-4444--4444--4-4-0000--0000-0-0--------------------------------------------|
|-4444--4444--4-4-0000--0000-0-0-----(2 times)------------------------------|
|-4444--4444--4-4-0000--0000-0-0--------------------------------------------|

Bridge 1: * are harmonics. Scratch that stuff good.
-----------|
-----------|
-----------|
-44-4-555*-|
-44-4-555*-|
-44-4-555*-|
Bridge 2:
---------------------------------------------------------------------------|
---------------------------------------------------------------------------|
---------------------------------------------------------------------------|
-4444-0000-----------------------------------------------------------------|
-4444-0000---(8 times)-----------------------------------------------------|
-4444-0000-----------------------------------------------------------------|

Enjoy, get creative with it if you don't like the sound of something.

            
            
Suggest correction
Creating personal tab
Creating personal tab
You can edit any tab online and save it as your Personal.

You can edit, replace or remove any tab part or add personal notes – all changes will be seen only by you.

Personal tabs can be accessed anytime from any device, even offline.
Learn more »
Give kudos to tab author, rate the tab!
1 2 3 4 5
comments
print report bad tab
guest
You may want to rate the tab now too:
select rating
Wanna post a correction for this tab? Suggest correction