Oops, an error
Loading. Please wait.

La Corrida chords

by Tryo
202 views 12 this week
no commentswrite comment
1 2 3 4 5
3 more votes to show rating
add to favorites
×
Save as Personal and add changes to this tab that will be seen only by you. Learn more ›
×
You can save this tab as Personal to edit and correct it or add notes. All changes will be seen only by you. Learn more »
launch autoscroll
font size
0
reset
transpose
0
reset
simplify chords
display chords
guitar tuner
edit
Autoscroll
slow
fast
+/-
esc
set tempo
stop
Strumming
There is no strumming pattern for this song yet. and get +5 IQ
[Couplet 1]

          Dm
Depuis le temps que je patiente
           F
dans cette chambre noire
                 C
J'entends qu'on s'amuse et qu'on chante
           Bbsus2
Au bout du couloir

            Dm
Quelqu'un a touché le verrou
           F
Et j'ai plongé vers le grand jour
            C
J'ai vu les fanfares, les barrières
            Bbsus2
Et les gens autour


[Riff]

    Dm                                F             C                      Bbsus2
e|---1--1--3/-5--3--1--3--1--5--3-----1---------|---0--0--1/-3--1--0--------1------------------|
B|---3--3-----------------------------1---------|---1--1--------------------1------------------|
G|---2--2-----------------------------2---------|---0--0--------------------2------------------|
D|---0--0-----------------------------3---------|---2--2--------------------2------------------|
A|------------------------------------3---------|---3--3--------------------1------------------|
E|----------------------------------------------|----------------------------------------------|

[Couplet 2]

             Dm
Dans les premiers moments j'ai cru
               F
Qu'il fallait seulement se défendre
             C
Mais cette place est sans issue
             Bbsus2
Je commence à comprendre

           Dm
Ils ont refermé derrière moi
            F
Ils ont eu peur que je recule
              C
Je vais bien finir par l'avoir
      Bbsus2
Cette danseuse ridicule…


[Riff]

    Dm                                F             C                      Bbsus2
e|---1--1--3/-5--3--1--3--1--5--3-----1---------|---0--0--1/-3--1--0--------1------------------|
B|---3--3-----------------------------1---------|---1--1--------------------1------------------|
G|---2--2-----------------------------2---------|---0--0--------------------2------------------|
D|---0--0-----------------------------3---------|---2--2--------------------2------------------|
A|------------------------------------3---------|---3--3--------------------1------------------|
E|----------------------------------------------|----------------------------------------------|

Est-ce que ce monde est sérieux ? (x2)


[Couplet 3]

       Dm
Andalousie je me souviens
             F
Les prairies bordées de cactus
                C
Je ne vais pas trembler devant
              Bbsus2
Ce pantin, ce minus !

             Dm
Je vais l'attraper, lui et son chapeau
           F
Les faire tourner comme un soleil
            C
Ce soir la femme du torero
        Bbsus2
Dormira sur ses deux oreilles


[Riff]

    Dm                                F             C                      Bbsus2
e|---1--1--3/-5--3--1--3--1--5--3-----1---------|---0--0--1/-3--1--0--------1------------------|
B|---3--3-----------------------------1---------|---1--1--------------------1------------------|
G|---2--2-----------------------------2---------|---0--0--------------------2------------------|
D|---0--0-----------------------------3---------|---2--2--------------------2------------------|
A|------------------------------------3---------|---3--3--------------------1------------------|
E|----------------------------------------------|----------------------------------------------|

Est-ce que ce monde est sérieux ? (x2)


[Pont]

                       Csus2
J'en ai poursuivi des fantômes
                          Dm        Dsus2   Dsus4   Dm
Presque touché leurs ballerines
          Bbsus2
Ils ont frappé fort dans mon cou
            Asus4      A  Asus4  A  Asus2  A
Pour que je m'incline

           Bbsus2
Ils sortent d'où ces acrobates
          Csus2          Dm        Dsus2   Dsus4   Dm
Avec leurs costumes de papier
           Bbsus2
J'ai jamais appris à me battre
           Csus2
Contre des poupées


[Riff]

    Dm                                F             C                      Bbsus2
e|---1--1--3/-5--3--1--3--1--5--3-----1---------|---0--0--1/-3--1--0--------1------------------|
B|---3--3-----------------------------1---------|---1--1--------------------1------------------|
G|---2--2-----------------------------2---------|---0--0--------------------2------------------|
D|---0--0-----------------------------3---------|---2--2--------------------2------------------|
A|------------------------------------3---------|---3--3--------------------1------------------|
E|----------------------------------------------|----------------------------------------------|

Est-ce que ce monde est sérieux ? (x2)


[Couplet 4]

          Dm
Sentir le sable sous ma tête
         F
C'est fou comme ça peut faire du bien
       C
J'ai prié pour que tout s'arrête
       Bbsus2
Andalousie je me souviens

          Dm
Je les entends rire comme je râle
             F
Je les vois danser comme je succombe
    C
Je pensais pas qu'on puisse autant
        Bbsus2
S'amuser autour d'une tombe


[Riff]

    Dm                                F             C                      Bbsus2
e|---1--1--3/-5--3--1--3--1--5--3-----1---------|---0--0--1/-3--1--0--------1------------------|
B|---3--3-----------------------------1---------|---1--1--------------------1------------------|
G|---2--2-----------------------------2---------|---0--0--------------------2------------------|
D|---0--0-----------------------------3---------|---2--2--------------------2------------------|
A|------------------------------------3---------|---3--3--------------------1------------------|
E|----------------------------------------------|----------------------------------------------|

Est-ce que ce monde est sérieux ? (x4)

-----------------------
Csus2  : x35533

            
            
Suggest correction
Creating personal tab
Creating personal tab
You can edit any tab online and save it as your Personal.

You can edit, replace or remove any tab part or add personal notes – all changes will be seen only by you.

Personal tabs can be accessed anytime from any device, even offline.
Learn more »
Give kudos to tab author, rate the tab!
1 2 3 4 5
comments
print report bad tab
guest
You may want to rate the tab now too:
select rating
Wanna post a correction for this tab? Suggest correction