Oops, an error
Loading. Please wait.

Say It Aint So tab

version 2
version 2

Whole song

61 views 6 this week
no commentswrite comment
1 2 3 4 5
x 4
add to favorites
×
Save as Personal and add changes to this tab that will be seen only by you. Learn more ›
×
You can save this tab as Personal to edit and correct it or add notes. All changes will be seen only by you. Learn more »
launch autoscroll
font size
0
reset
how to read this tab
guitar tuner
edit
Autoscroll
slow
fast
+/-
esc
set tempo
stop
-----------------------------------------------------------------------------------------------
                             Say, It Ain't So - Tsuneo Imahori
-----------------------------------------------------------------------------------------------
Tabbed by: Ian Normile
E-mail: inormile@purdue.edu

Tuning: Standard (E A D G B E), Capo 5th


e|-5h7-----7-----5h7-----7-----5h7-----7------| 
B|------------5-------------5-------------5---| x2
G|------4-------------4-------------4---------|
D|-2-------------2-------------2--------------|
A|--------------------------------------------|
E|--------------------------------------------|

e|-5h7-----7-----7---|
B|------------5------|
G|------4------------|
D|-2-------------2---|
A|-------------------|
E|-------------------|



e|-2--------------2--------------2--------------4---------------|
B|-------0--2-----------0--2-----------0--2-----------0--2------| x2
G|--------------------------------------------------------------|
D|----2--------2-----2--------2-----2--------2-----2--------2---|
A|--------------------------------------------------------------|
E|-0--------------0--------------0--------------0---------------|

e|-2--------------4--------------2--------------4---------------|
B|-------0--5-----------0--5-----------0--5-----------0--5------|
G|--------------------------------------------------------------|
D|----2--------2-----2--------2-----2--------2-----2------------|
A|--------------------------------------------------------------|
E|-0--------------0--------------0--------------0---------------|



e|-----------------------------------------------------------|
B|-2-----0--2-----0--------0-----0--------2--------------0---|
G|----------------------2--------------0--------2-----2------|
D|----2--------2-----1--------1-----1--------1-----2---------|
A|-----------------------------------------------------------|
E|-5--------------4--------------3--------------2--------4---|

e|-----------------------------------------------------------|
B|-2-----0--2-----0--------0-----0--------0--------------0---|
G|----------------------2--------------0--------2-----2------|
D|----2--------2-----1--------1-----1--------1-----2---------|
A|-----------------------------------------------------------|
E|-5--------------4--------------3--------------2------------|

e|-------------------------------0-----0--0-----0--------0------|
B|--------------------------------------------------------------|
G|-2--------2-----2--------2-----------------2------------------|
D|-------2--------------2-----------------------------2---------|
A|----3--------3-----3--------3-----3--------------3--------3---|
E|-1--------------1--------------1--------------1---------------|

e|-0--------0-----0--------0-----0-----0--0-----0------------|
B|-----------------------------------------------------------|
G|-------------------------------------------2-----------2---|
D|-------2--------------2-----------------------------2------|
A|----3--------3-----3--------3-----3--------------3---------|
E|-1--------------1--------------1--------------1------------|



e|-0--------0--2--------------2--------------2--------------4---------------|
B|-------0-----------0--2-----------0--2-----------0--2-----------0--2------|
G|--------------------------------------------------------------------------|
D|----2-----------2--------2-----2--------2-----2--------2-----2--------2---|
A|--------------------------------------------------------------------------|
E|-0-----------0--------------0--------------0--------------0---------------|

e|-2--------------2--------------2--------------4---------------|
B--------0--2-----------0--2-----------0--2-----------0--2------|
G|--------------------------------------------------------------|
D|----2--------2-----2--------2-----2--------2-----2--------2---|
A|--------------------------------------------------------------|
E|-0--------------0--------------0--------------0---------------|



e|------------------7--------------2------------------------------|
B|---------3--2-----------3--2-----------3--2-----0-----0--2------|
G|-2/4------------------------------------------------------------|
D|------2--------2-----2--------2-----2--------2-----2--------2---|
A|----------------------------------------------------------------|
E|-0----------------0--------------0--------------0---------------|

e|----------------7--------------5------------------------------|
B|-0-----3--2-----------3--2-----------3--2-----0-----0--2------|
G|--------------------------------------------------------------|
D|----2--------2-----2--------2-----2--------2-----2--------2---|
A|--------------------------------------------------------------|
E|-0--------------0--------------0--------------0---------------|



e|-----------------------------------------------------------|
B|-2-----0--2-----0--------0-----0--------2--------------0---|
G|----------------------2--------------0--------2-----2------|
D|----2--------2-----1--------1-----1--------1-----2---------|
A|-----------------------------------------------------------|
E|-5--------------4--------------3--------------2-----2--4---|

e|----------------0------------------------------------------|
B|-2-----0--2--------------0-----0--------2--------------0---|
G|----------------------2--------------0--------2-----2------|
D|----2--------2-----1--------1-----1--------1-----2---------|
A|-----------------------------------------------------------|
E|-5--------------4--------------3--------------2------------|

e|--------------------------------------------------------------|
B|--------------------------------------------------------------|
G|-2--------2-----2--------2-----2-----2--2-----2--------2------|
D|-------2--------------2--------------------2--------2---------|
A|----3--------3-----3--------3-----3--------------3--------3---|
E|-1--------------1--------------1--------------1---------------|

e|------------------------------------------------------|
B|------------------------------------------------------|
G|-2--------2-----2--------2-----2--------2-----2-------|
D|-------2--------------2--------------2----------------|
A|----3--------3-----3--------3-----3--------3-----3----|
E|-1--------------1--------------1--------------1-------|



e|-------2h4p2p0--------0--2--------2--7---|
B|----0--------------0-----------0---------| x2
G|-----------------------------------------|
D|-2--------------2-----------2------------|
A|-----------------------------------------|
E|-------------------------3---------------|



e|--------------------------------------------------|
B|----------2-----------2-----------2-----------2---|
G|-------4-----------4-----------4-----------4------|
D|--------------------------------------------------|
A|----4-----------4-----------4-----------4---------|
E|-2-----------2-----------2-----------2------------|

e|-----------------------------------------|
B|----------2-----------2-----------2------|
G|-------4-----------4-----------4---------|
D|-----------------------------------------|
A|----4-----------4-----------4--------2---|
E|-2-----------2-----------2---------------|



e|-2--------------2--------------2--------------4---------------|
B|-------0--2-----------0--2-----------0--2-----------0--2------| x2
G|--------------------------------------------------------------|
D|----2--------2-----2--------2-----2--------2-----2--------2---|
A|--------------------------------------------------------------|
E|-0--------------0--------------0--------------0---------------|

e|-2--------------4--------------2--------------4---------------|
B|-------0--5-----------0--5-----------0--5-----------0--5------|
G|--------------------------------------------------------------|
D|----2--------2-----2--------2-----2--------2-----2--------2---|
A|--------------------------------------------------------------|
E|-0--------------0--------------0--------------0---------------|


e|-2--------------2--------------2--------------2---------------|
B|-------0--2--------------2--------------2--------------2------|
G|----------------------3--------------2--------------2---------|
D|----2--------2-----2--------2-----2--------2-----2--------2---|
A|--------------------------------------------------------------|
E|-0--------------0--------------0--------------0---------------|

e|-2--------------2--------------2--------------2------------|
B|-------0--2--------------2--------------2--------------2---|
G|----------------------3--------------2--------------2------|
D|----2--------2-----2--------2-----2--------2-----2---------|
A|-----------------------------------------------------------|
E|-0--------------0--------------0--------------0------------|

e|------0-2h4---|
B|-----0--------|
G|----1---------|
D|---2----------|
A|--2-----------|
E|-0------------|
 

************************************

| h  Hammer-on
| p  Pull-off
| /  Slide up

************************************

            
            
Suggest correction
Creating personal tab
Creating personal tab
You can edit any tab online and save it as your Personal.

You can edit, replace or remove any tab part or add personal notes – all changes will be seen only by you.

Personal tabs can be accessed anytime from any device, even offline.
Learn more »
comments
print report bad tab
guest
You may want to rate the tab now too:
select rating
Wanna post a correction for this tab? Suggest correction