Oops, an error
Loading. Please wait.

Night Of The Pencils bass

version 2
version 2

Whole song

451 views 1 this week
no commentswrite comment
1 2 3 4 5
2 more votes to show rating
add to favorites
×
Save as Personal and add changes to this tab that will be seen only by you. Learn more ›
×
You can save this tab as Personal to edit and correct it or add notes. All changes will be seen only by you. Learn more »
launch autoscroll
font size
0
reset
guitar tuner
edit
Autoscroll
slow
fast
+/-
esc
set tempo
stop
Author
Night of Pencils by Tubelord
from the album 'Our First American Friends'
tabbed by Alice637


Intro
(comes in at 00:06 after 4 bars of guitar)
G|-----------------------------------------------------|
D|----0----4-5-0----4-5-0----4-5-0--4-5----------------|
A|-----------------------------------------------------|
E|-----------------------------------------------------|

Verse 1
G|-----------------------------------------------------|
D|----0----4-5-0----4-5-0----4-5-0--4-5----------------|
A|-----------------------------------------------------|
E|-----------------------------------------------------|

Mavis told the truth, I'm the one for you
G|-----------4-----------------------------------------|
D|-----------------------------------------------------|
A|-----------------------------------------------------|
E|-----------------------------------------------------|

Mavis told the truth, I'm the one for you.
G|-----------------------------------------------------|
D|------0----------------------------------------------|
A|-----------------------------------------------------|
E|-----------------------------------------------------|

Mavis told the truth, I'm the one for you
G|-----------4-----------------------------------------|
D|-----------------------------------------------------|
A|-----------------------------------------------------|
E|-----------------------------------------------------|

Mavis told the truth, I'm the one for you.
G|-----------------------------------------------------|
D|------0----------------------------------------------|
A|-----------------------------------------------------|
E|-----------------------------------------------------|

Repeat of Intro
G|-----------------------------------------------------|
D|----0----4-5-0----4-5-0----4-5-0--4-5----------------|
A|-----------------------------------------------------|
E|-----------------------------------------------------|

Verse 2
G|-----------------------------------------------------|
D|----0----4-5-0----4-5-0----4-5-0--4-5----------------|
A|-----------------------------------------------------|
E|-----------------------------------------------------|

Mavis told the truth,  i'm the one for you
G|-----------------------------------------------------|
D|-----------------------------------------------------|
A|--2--2-2--2-2-2----2--2-2--2-2-2---------------------|
E|-----------------------------------------------------|

Mavis told the truth, i'm the one for you
G|-----------------------------------------------------|
D|--0--0-0--0-0-0----0--0-0--0-0-0---------------------|
A|-----------------------------------------------------|
E|-----------------------------------------------------|

Mavis told the truth, I'm the one for you.
G|-----------------------------------------------------|
D|----------------------0--0-0--0-0-0------------===---|
A|--2--2-2--2-2-2--------------------------------------|
E|-----------------------------------------------------|

ahhhh,                                 ahhhhh,
G|-----------------------------------------------------|
D|-----------------------------------------------------|
A|-----------------------------------------------------|
E|--0---0---0-0------------0---0---0-0-----------------|

ahhhh,                                 ahhhhh.
G|-----------------------------------------------------|
D|-----------------------------------------------------|
A|-----------------------------------------------------|
E|--3---3---3-3------------3---3---3-3-----------------|

G|-----------------------------------------------------|
D|---0--0--0---0-0-0--0--------------------------------|
A|-----------------------------------------------------|
E|-----------------------------------------------------|

G|----------------------------7-7-7-7-7-7--------------------|
D|---0--0--0---0-0-0--0-------------------0--0-0-0-----------|
A|-----------------------------------------------------------|
E|-----------------------------------------------------------|


Let's spend the rest of summer stoned
-Come in on 'stoned-
[Change fret on the last word of each line]
G|-----------------------------------------------------|
D|--2-2-2-2--2-2-2-2--2-2-2-2--2-2-2-2-----------------|
A|-----------------------------------------------------|
E|-----------------------------------------------------|

G|-----------------------------------------------------|
D|-----------------------------------------------------|
A|--2-2-2-2--2-2-2-2--2-2-2-2--2-2-2-2-----------------|
E|-----------------------------------------------------|

G|-----------------------------------------------------|
D|-----------------------------------------------------|
A|--3-3-3-3--3-3-3-3--3-3-3-3--3-3-3-3-----------------|
E|-----------------------------------------------------|

G|-----------------------------------------------------|
D|--0-0-0-0--0-0-0-0--0-0-0-0--0-0-0-0-----------------|
A|-----------------------------------------------------|
E|-----------------------------------------------------|

G|-----------------------------------------------------|
D|--2-2-2-2--2-2-2-2--2-2-2-2--2-2-2-2-----------------|
A|-----------------------------------------------------|
E|-----------------------------------------------------|

G|-----------------------------------------------------|
D|-----------------------------------------------------|
A|--2-2-2-2--2-2-2-2--2-2-2-2--2-2-2-2-----------------|
E|-----------------------------------------------------|

G|-----------------------------------------------------|
D|-----------------------------------------------------|                     
A|--3-3-3-3--3-3-3-3--3-3-3-3--3-3-3-3-----------------|
E|-----------------------------------------------------|

G|-----------------------------------------------------|
D|--2-2-2-2--2-2-2-2--2-2-2-2--2-2-2-2-----------------|
A|-----------------------------------------------------|
E|-----------------------------------------------------|

G|-----------------------------------------------------|
D|-----------------------------------------------------|
A|--2-2-2-2--2-2-2-2--2-2-2-2--2-2-2-2-----------------|
E|-----------------------------------------------------|

G|-----------------------------------------------------|
D|-----------------------------------------------------|
A|--3-3-3-3--3-3-3-3--3-3-3-3--3-3-3-3-----------------|
E|-----------------------------------------------------|

G|-----------------------------------------------------|
D|--0-0-0-0--0-0-0-0--0-0-0-0--0-0-0-0-----------------|
A|-----------------------------------------------------|
E|-----------------------------------------------------|

G|-----------------------------------------------------|
D|--2-2-2-2--2-2-2-2--2-2-2-2--2-2-2-2-----------------|
A|-----------------------------------------------------|
E|-----------------------------------------------------|

G|-----------------------------------------------------|
D|-----------------------------------------------------|
A|--2-2-2-2--2-2-2-2--2-2-2-2--2-2-2-2-----------------|
E|-----------------------------------------------------|

G|-----------------------------------------------------|
D|-----------------------------------------------------|                     
A|--3-3-3-3--3-3-3-3--3-3-3-3--3-3-3-3-----------------|
E|-----------------------------------------------------|



We're bigger than memphis, you only exsist when I want you to
G|----------------------------------------------------------------|
D|---0--------2-------------------------------------0-------------|     x2
A|----------------------------------------------------------------|
E|------------------------------------3---------------------------|


(No vocals)
G|-----------------------------------------------------------|
D|--0-0-0--0-0-0--0-0-0--0-0-0-------------------------------|
A|-----------------------------0-0-0--0-0-0------------------|     x2
E|------------------------------------------3-3-3--3-3-3-----|   

Breakdown
G|----------------------------------------------------------------------|
D|--0--0-0---0--0-0---0--0-0---0--0-0-----------------------------------|
A|------------------------------------0-0-0--0-0-0----------------------|
E|-------------------------------------------------3-3-3--3-3-3---------|

  
G|----------------------------------------------------------------------|
D|--0--0-0---0--0-0---0--0-0---0--0-0-----------------------------------|
A|------------------------------------0-0-0--0-0-0----------------------|
E|-------------------------------------------------3-3-3--3-3-3---------|

G|----------------------------------------------------------------------|
D|--0--0-0---0--0-0---0--0-0---0--0-0-----------------------------------|
A|------------------------------------0-0-0--0-0-0----------------------|
E|-------------------------------------------------3-3-3--3-3-3---------|


G|----------------------------------------------------------------------|
D|--0--0-0---0--0-0---0--0-0---0--0-0-----------------------------------|
A|------------------------------------0-0-0--0-0-0----------------------|
E|-------------------------------------------------3-3-3--3-3-----------|


It's such a ride
G|-----------------------------------------------------|
D|---0--00-0-2-2---------------------------------------|
A|-----------------------------------------------------|  x3
E|------------------3-3-3-3-3-3------------------------|

It's such a ride
G|-----------------------------------------------------|
D|-----------------------------------------------------|
A|-----------------------------------------------------|
E|--1-1-1-1-1-1--3-3-3-3-3-3---------------------------|

G|--------------------------------------------------------------------------|
D|---0000-0000-0000-0000-2222-2222-2222-2222-------------0000-0000-0000-0000|
A|--------------------------------------------------------------------------|
E|---------------------------------------3333-3333-3333-3333----------------|  x2


We're bigger than memphis, you only exsist when I want you to
G|------------------------------------------------------------------------|
D|--0-0-0-0-0-0-0-0--2-2-2-2-2-2-2-2-----------------0-0-0-0-0-0-0-0------|
A|------------------------------------------------------------------------|
E|-----------------------------------3-3-3-3-3-3-3-3----------------------|  x2

We're bigger than memphis, you only exsist when I want you to
G|-----------------------------------------------------|
D|--0-0------2-2------------0-0-0-0--0-2--0--4---------|
A|-----------------------------------------------------|
E|-------------------3-3-------------------------------|

We're bigger than memphis, you only exsist when I want you to
G|------------------------------------------------------------------------|
D|--0-0---2-2------0-0-0-0-0-0---0-2--0-4--0-7--0-11--0-12----0-----------|
A|------------------------------------------------------------------------|
E|------------3-3---------------------------------------------------------|

            
            
Suggest correction
Creating personal tab
Creating personal tab
You can edit any tab online and save it as your Personal.

You can edit, replace or remove any tab part or add personal notes – all changes will be seen only by you.

Personal tabs can be accessed anytime from any device, even offline.
Learn more »
Give kudos to tab author, rate the tab!
1 2 3 4 5
comments
print report bad tab
guest
You may want to rate the tab now too:
select rating
Wanna post a correction for this tab? Suggest correction