Oops, an error
Loading. Please wait.

Espejeando Tab

48 views 1 this week
no commentswrite comment
1 2 3 4 5
3 more votes to show rating
add to favorites
launch autoscroll
font size
0
reset
how to read this tab
guitar tuner
×
Best way to learn
"Espejeando"
Autoscroll
slow
fast
+/-
esc
set tempo
stop
Les traigo el intro de esta canción con la colaboración de alcatraz

E------5--5--------5--5------5--5-----------------
B----7-------8--7----------7-------8--7-----------
G--7---------------------7---------------7--------  X2
D-------------------------------------------------
A-------------------------------------------------
E-------------------------------------------------

E----4----7--5------5---9---7------4--7--5-----5-5---11--9--7-5--4--
B---5-----9--7-----7----10--9-----5---9--7-----7-7---12--11-9-7--5--
G--4-------------6---------------4-------------------------------4-- X2
D-------------------------------------------------------------------
A-------------------------------------------------------------------
E-------------------------------------------------------------------

Y se repite a lo largo de la cancion. Saludos
Suggest correction
Give kudos to tab author, rate the tab!
1 2 3 4 5
comments
print report bad tab
guest
You may want to rate the tab now too:
select rating
Wanna post a correction for this tab? Suggest correction