Oops, an error
Loading. Please wait.

Fiesta En La Sierra Tab

61 views 1 this week
no commentswrite comment
1 2 3 4 5
3 more votes to show rating
add to favorites
launch autoscroll
font size
0
reset
how to read this tab
guitar tuner
×
Best way to learn
"Fiesta En La Sierra"
Autoscroll
slow
fast
+/-
esc
set tempo
stop
esta es la fiesta en la sierra.....hice el mejor intento para sacar
la bien.

Prejuntas : siulotos@

LOS STUWES o LOS E-STUWES


====+
=====E|---3-3-2--5-3-2---2-3-2-3-2-0-----------2-0-------2-2-2-0-----
     B|---5-5-3--7-5-3---3-5-3-5-3-1-3---3-3-3-3-1-3-1-3-3-3-3-1-3---
     G|------------------------------4---4-4-4-----4-2-4---------4---
     D|--------------------------------------------------------------
     A|--------------------------------------------------------------
=====E|--------------------------------------------------------------
====+


====+
=====E|---3-3-2--5-3-2---2-3-2-3-2-0-----------2-0-------2-0--------
     B|---5-5-3--7-5-3---3-5-3-5-3-1-3---3-3-3-3-1-3-1-3-3-1-3-1----
     G|------------------------------4---4-4-4-----4-2-4-----4-2-4--
     D|----------------------------------------------------------5--
     A|-------------------------------------------------------------
=====E|-------------------------------------------------------------
====+


====+
=====E|-----------0-2-0---------------------------------------------
     B|---------1-------3-1-0---------------------------------------
     G|---0-2-4---------------2-0-----------------------------------
     D|-------------------------------------------------------------
     A|-------------------------------------------------------------
=====E|-------------------------------------------------------------
====+


Espero que les guste
Suggest correction
Give kudos to tab author, rate the tab!
1 2 3 4 5
comments
print report bad tab
guest
You may want to rate the tab now too:
select rating
Wanna post a correction for this tab? Suggest correction