Oops, an error
Loading. Please wait.

Me Gusta Vivir De Noche Chords

71 views 1 this week
no commentswrite comment
1 2 3 4 5
3 more votes to show rating
add to favorites
×
Save as Personal and add changes to this tab that will be seen only by you. Learn more ›
×
You can save this tab as Personal to edit and correct it or add notes. All changes will be seen only by you. Learn more »
save as personal
new!
launch autoscroll
font size
0
reset
transpose
0
reset
display chords
guitar tuner
Autoscroll
slow
fast
+/-
esc
set tempo
stop
Strumming
There is no strumming pattern for this song yet. and get +5 IQ
Ritmo
 |  / \ \  |  / \ \  |   |  / \ \  |  / \ \
 |   |  /  |   |  /  |   |   |  /  |   |  /
\ /  |  \ \ /  |  \ \ / \ /  |  \ \ /  |  \

\            |         / \
/  Apagado   |  Abajo   |  Arriba
\           \ /         |

Damas y caballeros recuerden que el estres y la tristeza 
son nosivos para la salud a si es que todo mundo a bailar
Echele primo

        Riff1
 e-7-----7---------7-----7---------------¦
 B---7-9---7-9-7-----7-9-----------------¦ 
 G---------------------------------------¦
 D---------------------------------------¦
 A---------------------------------------¦
 E---------------------------------------¦

F
one, two, trhee, Four, Five

En esta vida Hay muchas cosas
                     C
pero de dia no se conocen Huuuuuu       RIFF1       (hu, hu, hu, hu)

si a ustedes gustan yo los invito
                        F
a mi me gusta vivir de noche            RIFF1       (hu, hu, hu, hu)

la buena vida se da de noche
                        C
no falta nada consigues todo Huuuuu     RIFF1       (hu, hu, hu, hu)

viva la noche (viva)

viva la vida (viva)
                         F
La noche me hace feliz nimodo            RIFF1

No soy vampiro 

soy muy alegre (ua)
                         C
asi naci y asi es mi destino Huuuuu      RIFF1       (hu, hu, hu, hu)

soy pachanguero, soy tequilero
                          F
yo soy nocturno de noche vivo            RIFF1       (hu, hu, hu, hu)

           G       A#     F
y a mi me gusta vivir de noche
            G         A#   F
y ami me encantan la desvelada
         G       A#     F
a mi me gusta vivir de noche
           G      A#       F
yo soy un hijo de la madrugadadadadadadadadadada

(echele primo)


 e-9-9-9-9-9-9-7-9-9-9-7-9-9-9-9-9-9-9-7-9-9-9-7-------9-9-9-9-9-9-7---9-9-7-9-9-9-9-9-9-9-7---9-9-7-------7------¦
 B-----------------------------------------------9-------------------9-----------------------9-------9-7-9--------¦ 
 G----------------------------------------------------------------------------------------------------------------¦
 D----------------------------------------------------------------------------------------------------------------¦
 A----------------------------------------------------------------------------------------------------------------¦
 E----------------------------------------------------------------------------------------------------------------¦


No soy vampiro...


la página de Armando Palomas
Suggest correction
Give kudos to tab author, rate the tab!
1 2 3 4 5
comments
print report bad tab
guest
Wanna post a correction for this tab? Suggest correction