Oops, an error
Loading. Please wait.

Rachel Au Rocher album chords

28 views 1 this week
no commentswrite comment
1 2 3 4 5
3 more votes to show rating
add to favorites
×
Save as Personal and add changes to this tab that will be seen only by you. Learn more ›
×
You can save this tab as Personal to edit and correct it or add notes. All changes will be seen only by you. Learn more »
launch autoscroll
font size
0
reset
transpose
0
reset
simplify chords
display chords
guitar tuner
edit
Autoscroll
slow
fast
+/-
esc
set tempo
stop
Author
Difficulty
newg [tm] 49,599
intermediate
Strumming
There is no strumming pattern for this song yet. and get +5 IQ
    *****************
    *   Tue Loup    *
    *****************           


                 Rachel au rocher     (2005)
                 ------------------



E-mail: gwendal.mollo@orange.fr
Tabbed by: newg    (http://profile.ultimate-guitar.com/newg/)


Tracklist :

    1.  City-light
    2.  Corps de bête
    3.  Les yeux de l'âne
    4.  Je m'aplatis
    5.  Les encoches
    6.  Le ressac
    7.  Le martin pêcheur
    8.  Elias
    9.  Les grands pins
    10.  Pas d'chant, pas d'krumar
    11.  Je n'ai pas soupé




-------------------------------------------------------------------------------
                           Tue Loup - City-Light
-------------------------------------------------------------------------------
Album : Rachel au rocher
Tempo : 100
Tabbed by:newg
E-mail:gwendal.mollo@orange.fr

intro: 
A#m


A#m
dis la belle trembles-tu parfois 
                           G#
De la surchauffe de nos cerveaux
Quand les yeux dilatés 
                          A#m
Dans le ciel de San Francisco
On voyait des vikings
                       G#
A l'air hagard et belliqueux
bondir de leurs drakkars
                      A#m
et mettre la plage en feu
F#                     C
   et le grand poisson blanc
                      A#m
avec son sourire effrayant
F#                      C
   et mes mains sur tes seins
                     A#m
avec ton sourire d'enfant 


Refrain :
F#                          A#m
  Et le brouillard tous les soirs
F#                           A#m
  vient mouiller tes boucles noires
F#                     G#
  O brouillard mélancolique 
       F               A#m
Qui me ramène au Pacifique



A#m
dis la belle trembles-tu encore 
                           G#
De la surchauffe de nos cerveaux
Quand les yeux dilatés 
                            A#m
Dans les rues bondées de Castro
On voyait des drag-queens
                    G#
A la fulgurante beauté
se pâmer au balcon
                           A#m
et mettre la foule à leurs pieds
F#                      C
   herbe grasse et crépitante
                      A#m
Entre tes doigts impatients
F#                  C
   bouche lasse haletante
                         A#m
sous mes doigts bat ton sang

refrain
Solo  (A#m G# ...)
refrain
A#m




                  ~~~~~~~~~~~~~~~~~~~~~~~~~~~~~~~~~~~~




-------------------------------------------------------------------------------
                             Tue Loup - Ton corps de bête
-------------------------------------------------------------------------------
Album : Rachel au rocher
Tempo : 74
Tabbed by:newg
E-mail:gwendal.mollo@orange.fr

Capo 1

Varier Em avec Em7 : 022030

G Em  x4

G                         Em
ton corps de bête est-il atteint
                     G
Par l'ombre de mon désir
                     Em
qui survol le ravins
                       C   G
qui s'abreuve à l'élixir
G                Em
et la sangle bien serrée
                     G
la bonne longueur d'étrier
G                       Em
quand il franchit les rivières
                          C      G
quand il fait trembler la terre


Refrain : 
C                      Em                         C
   Sous la voûte scintillante, on voit des amours stellaires 
                   Em                             C     Em  Am  Bm    
des poitrines frémissantes, dessous le cœur s'accélère
      G      Em   G   Em 
s'accélère

G                       Em
et par tous les chemins creux
                     G
d'herbes sèches tapissés
                      Em
craquantes sous la foulée
                        C       G
il gonfle et dresse ses pieux
G                          Em
tiens v'là l'bord de mon chapeau
                        G
qui se couche sur l'horizon
                       Em
je rentre pas à la maison
                    C         G
la belle écarte ses roseaux


[Refrain]

Pont


G                            Em
Et dans le corps des poulains
                       G
a présent grands percherons
                         Em
Comme dans ton regard en coin
                         C      G
je le sens sortir de ses gonds



[Refrain]


G Em...




                  ~~~~~~~~~~~~~~~~~~~~~~~~~~~~~~~~~~~~




-------------------------------------------------------------------------------
                          Tue Loup - Les yeux de l'âne
-------------------------------------------------------------------------------

Album : Rachel Au Rocher (2005)
Tempo : 107
E-mail: gwendal.mollo@orange.fr
Tabbed by: newg




E ||-----------------------------------------------------------------------|
B ||-----------------------------------------------------------------------|
G ||o------4h----2-----------4h----2---------------------------------------|
D ||o------4h----2-----------4h----2---------------------------------------|
A ||-2-----------------2---------------------------------------------------|
E ||-------------------------------------5--------4--------2---------------|


---------------------------------------------------------------------------||
---------------------------------------------------------------------------||
--------4h----2-----------4h----2-----------------------------------------o||
--------4h----2-----------4h----2-----------------------------------------o||
--2-----------------2-----------------5--------4--------2------------------||
---------------------------------------------------------------------------|| x2


---------------------------------------------------------------------------|
---------------------------------------------------------------------------|
o------4h----2-----------4h----2-------------------------------------------|
o------4h----2-----------4h----2-------------------------------------------|
-2-----------------2--------------------------5----------------------------|
-------------------------------------5-----------------2-------------------|


---------------------------------------------------------------------------|
---------------------------------------------------------------------------|
--------4h----2-----------4h----2-----------------------------------------o|
--------4h----2-----------4h----2--------------4--------------------------o|
--2-----------------2-----------------5-----------------2------------------|
---------------------------------------------------------------------------| x2


----------------------------------------------------------------------------|
----------------------------------------------------------------------------|
--------4h----2-----------4h----2-------------------------------------------|
--------4h----2-----------4h----2-------------------------------------------|
--2-----------------2-------------------------------------------------------|
--------------------------------------4--------5--------7-------------------|


----------------------------------------------------------------------------|
----------------------------------------------------------------------------|
--------4h----2-----------4h----2-------------------------------------------|
--------4h----2-----------4h----2-------------------------------------------|
--2-----------------2-----------------4--------5--------2-------------------|
----------------------------------------------------------------------------|


----------------------------------------------------------------------------|
----------------------------------------------------------------------------|
--------4h----2-----------4h----2-------------------------------------------|
--------4h----2-----------4h----2-------------------------------------------|
--2-----------------2-------------------------------------------------------|
--------------------------------------5--------4--------2-------------------|


----------------------------------------------------------------------------|
----------------------------------------------------------------------------|
--------4h----2-----------4h----2-------------------------------------------|
--------4h----2-----------4h----2-------------------------------------------|
--2-----------------2-----------------5--------4--------2-------------------|
----------------------------------------------------------------------------|




                  ~~~~~~~~~~~~~~~~~~~~~~~~~~~~~~~~~~~~




----------------------------------------------------------------------------------------------------
                                      Tue Loup - Les Encoches
----------------------------------------------------------------------------------------------------

Album : Rachel Au Rocher (2005)
Tempo : 129
E-mail: gwendal.mollo@orange.fr
Tabbed by: newg    (http://profile.ultimate-guitar.com/newg/)

Capo 2

  Am                           Am/G
e|---------------------------------|
B|---1---1---1---1---1---1---1-----|
G|-----2---2---2---2--2---2---2----|
D|---------------------------------|
A|-0-------------------------------|
E|------------------------------3--|

Am                                          F
Jaune d'or sous les gorges, Pour voir si de beurre 
               Am
Nous sommes amateurs 
Am                                           F
Aux oeufs d'or qu'on égorge, Pour voir si du sang 
                      Am
Des fois nous aurions peur 
Am                                        F
Cléopâtre que l'on mange, Pour voir si l'amande 
                Em     Em        Am     
A le goût de l'odeur,      de l'odeur 

Refrain :
Am       F               Dm       Dm          Am
   Et le temps qui garde tout, Au fond de ses poches 
    F                  Dm         Dm             Am
Oh le temps dont les vêtements, Jamais ne s'effilochent 
       F              Dm          Dm         Am
Et qui taille sur nos membres, De bois ses encoches 


Am                                        F
Et la mort qu'on éclaire, Aux collets des grives 
             Am
A la nuit tombante 
Am                                             F
Parfum fort que l'on flaire, Sous les bras des filles 
                    Am
Pousse une herbe enivrante 
Am                                        F
L'acariâtre qu'on dérange, Pour voir sa colère 
                   Em    Em          Am     
Dans toute sa splendeur,     sa splendeur

[Refrain]

Am                                           F
Grand taureau que l'on guette, Le souffle coupé 
               Am
Par autant d'ardeur 
Am                                        F
Oripeaux que l'on jette, Sur l'eau vive cachée 
                Em     Em        Am     
Où se noie la douleur,     la douleur

Am       F               Dm       Dm          Am
   Et le temps qui garde tout, Au fond de ses poches 
    F                  Dm         Dm             Am
Oh le temps dont les vêtements, Jamais ne s'effilochent 
       F              Dm          Dm         Em      F    Em    F
Et qui taille sur nos membres, De bois ses encoches 

Am




                  ~~~~~~~~~~~~~~~~~~~~~~~~~~~~~~~~~~~~




-------------------------------------------------------------------------------
                                Tue Loup - Le Martin Pêcheur
-------------------------------------------------------------------------------

Album : Rachel au rocher
Tempo : 140
Tabbed by:newg
E-mail:gwendal.mollo@orange.fr (merci à pichtashe@yahoo.fr)
               
Intro :
               Bm                           F#m
e|---------------2------2-----2--|------------2------2----2------|
B|---3h2---------3------3-----3--|---3h2------2------2----2------|
G|-------4h2-----4------4-----4--|------4h2---2------2----2------|
D|---------------4------4-----4--|------------4------4----4------|
A|-------------2----2-2-----2----|------------4------4----4------|
E|-------------------------------|----------2----2-2----2--------|  x2


                Bm                                F#m                    
T'entends pas dehors ? Comme ça roucoule, ça fait plouf…
                     Bm                     F#m    
Le grand mélange des corps par le désir impérieux
              G     A#   C#      
Oh oui, le désir

               Bm                         F#m  
Tu sens pas le lierre ? Qui avance et qui bouffe
                Bm                    F#m  
Nos cœurs en jachère par l'obscur paresseux
              G      A#   C#   
Oh oui, paresseux


Refrain:
           D    F#m                 G      A#
Mais il revient,    déverser ses couleurs
       D   F#m                G      A#
Et retirer,    nos masques de mots
         D    F#m            G      A#         D
Oh bénit soit,   le martin pêcheur
          Bm
Le multicolore
 

     Bm                           
e|-----2-------------|
B|-----3---2h3h2-----|
G|-----4---------2h4-|
D|-----4-------------|
A|---2---------------| x2    F#m x2
E|-------------------|

              Bm                     F#m    
Tu vois pas dehors ? Les chenilles anciennes
                  Bm                       F#m    
Dans leur nouveau corps, A défier l'apesanteur
            G      A#   C#   
Oh l'apesanteur

               Bm                           F#m    
Tu sens pas le givre ? Se répandre et faire sienne 
               Bm                           F#m    
Nos âmes moins vives, En prise sous la froideur
              G      A#   C#   
Oh oui, la froideur

Refrain


              Bm                          F#m  
Ah tout ce confort, Cachot de l'âme tu implores
                 Bm                          F#m  
Je ne peux satisfaire, Mon amour vit au grand air
                 Bm                       F#m  
Enceint de vieux mur, N'avoisinant que verdure
               Bm                      F#m  
Oh sûr de sa visite, Au bonheur je t'invite
              G      A#   C#   
Aller, je t'invite

Refrain :
           D    F#m                 G      A#
Mais il revient,    déverser ses couleurs
       D   F#m                G      A#
Et retirer,    nos masques de mots
         D    F#m            G      A#
Oh bénit soit,   le martin pêcheur                --
         D              F#m           G      A#    |  x2
Oh bénit soit,soit, soit    le multicolore        --

D



                  ~~~~~~~~~~~~~~~~~~~~~~~~~~~~~~~~~~~~




-------------------------------------------------------------------------------
                             Tue Loup - Elias
-------------------------------------------------------------------------------

Tempo : 120
Tabbed by:newg
E-mail:gwendal.mollo@orange.fr
 Note :
(Capo on 5 can be easily : Dm->Am, F->C...)
(all the chords is bar chords : Dm x57765...)


Riff intro : 
e|-------------|
B|-------------|
G|-------------|
D|-------------|
A|-------------|
E|-10-10-10-10-|  x4

e|----------------------------|-------------------------8--|
B|--10h9---------------10--9--|--10h9----------------9-----|
G|-------10h9h7--7-9-10-------|-------10h9h7--7-9-10-------|
D|----------------------------|----------------------------|
A|----------------------------|----------------------------|
E|----------------------------|----------------------------|

e|---------8------------8----------------------------------------|
B|------9----9--------9------------------------------------------|
G|---10--------10---9--------------------------------------------|
D|-------------------------------------12----------------12------|
A|---------------------------------12-------12-------12-----12---|
E|----------------------------8/10---------------10--------------|  x2

Dm 

Dm                          A#
Elias alone is watching the sun
A      Dm
by the window
Dm                            A#
Elias alone is looking at the flies
A      Dm
On the window
     F                 C
When she passed in the light
       Dm
Almost naked
F            C
eating a banana
         Dm
just for pleasure


          G  F#m A#  Dm
she said           my man

          G  F#m A#   Dm
she said           my thing
          G  F#m A#  Am
she said



Riff intro x1 



 Dm

Dm                          A#
Elias alone is watching the moon
A          Dm
around the house
Dm                              A# A
Elias alone is listening to the spiders
       Dm
in the house
     F               C
When she left in the light
         Dm
too much dressed
F                 C
By this beautiful night
         Dm
just for pleasure


          G  F#m A#  Dm
she said           no man

          G  F#m A#   Dm
she said           no thing
          G  F#m A#  Am
she said


Solo : F C Dm Dm x4

Outro : Riff x1
Suggest correction
Creating personal tab
Creating personal tab
You can edit any tab online and save it as your Personal.

You can edit, replace or remove any tab part or add personal notes – all changes will be seen only by you.

Personal tabs can be accessed anytime from any device, even offline.
Learn more »
Give kudos to tab author, rate the tab!
1 2 3 4 5
comments
print report bad tab
guest
You may want to rate the tab now too:
select rating
Wanna post a correction for this tab? Suggest correction