Oops, an error
Loading. Please wait.

Barrilete Bass

by Tukera
24 views 1 this week
no commentswrite comment
1 2 3 4 5
3 more votes to show rating
add to favorites
×
Save as Personal and add changes to this tab that will be seen only by you. Learn more ›
launch autoscroll
font size
0
reset
guitar tuner
Autoscroll
slow
fast
+/-
esc
set tempo
stop
INTRO:

1|----------------------------
2|-4--4--4--4--4--4--4--4-5-7-
3|--5--5--5--5--5--5--5-------
4|----------------------------

1|----------------------------
2|-4--4--4--4--4--4--4--4-5-2-
3|--5--5--5--5--5--5--5-------
4|----------------------------
                                x4
A5                D5
Miren que paso! que que que...

Se rompio mi barrilete...

1-----------------------------------
2------------4-7-4---6-9-6----------
3---4-7-4--5-------7----------4-7-4-
4-5-------------------------5-------

A5                D5
Miren que paso! que que que...

Se rompio mi barrilete...

1-----------------------------------
2------------4-7-4---6-9-6----------
3---4-7-4--5-------7----------4-7-4-
4-5-------------------------5-------

A5                D5
Miren que paso! que que que...

Se rompio mi barrilete...

1--------------------
2--------------------
3------5...-7...-----
4-5...-----------5---

niko_yqteimporta@
Suggest correction
Give kudos to tab author, rate the tab!
1 2 3 4 5
comments
print report bad tab
guest
You may want to rate the tab now too:
select rating
Wanna post a correction for this tab? Suggest correction