Oops, an error
Loading. Please wait.

Julito Tab

by Tukera
8 views 1 this week
no commentswrite comment
1 2 3 4 5
3 more votes to show rating
add to favorites
launch autoscroll
font size
0
reset
how to read this tab
guitar tuner
×
Best way to learn
"Julito"
Autoscroll
slow
fast
+/-
esc
set tempo
stop
bueno basicamente toda la cancion sigue
esta progresion de acordes:

       A        E       F#        D     -  E
e-|----------------------------------------------|
B-|----------------------------------------------|
G-|----------9--9--9--12-12-12--7--7--7-/-9--9---|
D-|-7--7--7--9--9--9--12-12-12--7--7--7-/-9--9---|
A-|-7--7--7--7--7--7--9--9--9---5--5--5-/-7--7---|
E-|-5--5--5--------------------------------------|

INTRO:
e-|-----------------|----------------------------|
B-|-----------------|----------------------------|
G-|-----------------|----------------------------|
D-|-----------------|----9-7-6-------9-7-6-7-6---|
A-|-/7~-/7~-/7~-/7~-|-/7-------7~-/7----------7~-|
E-|-----------------|----------------------------|


 A               E
Julito tiene un problema
 F#           D - E
el es medio tartamudo
aparte de todo eso el
tambien es medio boludo

es una buena persona
pero no es ningun careta
a la tarde se fuma unos porros
y a la noche toma merka

A         E
No lo molestes
F#       D - E
no lo molestes

Ayer le dieron el alta
porke estubo internado
por eskibar una bicicleta
se lo llevo puesto un auto

esta todo enyesado
del cuello hasta los tobillos
encima le llego un
telegrama: Julio Gonzales esta despedido...

No lo molestes
no lo molestes

ACA HACE IGUAL Q LA INTRO SOLO Q AL FINAL CAMBIA UN PAR DE NOTAS
ESTA ES LA PARTE DIFERENTE:
e-|-----------------------------|
B-|-----------------------------| lo hace una vez
G-|-----------------------------| y depues mas lento
D-|----9-7-6-7-6-7h6h7h6h7h6----| ocupando mas compases
A-|-/7----------------------7~--|
E-|-----------------------------|

A      E
No lo molestes
F#     D  - E
no lo molestes

AGUANTE EL PUNK ROCK
LUIS_DAMMIT
Suggest correction
Give kudos to tab author, rate the tab!
1 2 3 4 5
comments
print report bad tab
guest
You may want to rate the tab now too:
select rating
Wanna post a correction for this tab? Suggest correction