Oops, an error
Loading. Please wait.

Yo Ya Me Voy Bass

by Tukera
58 views 1 this week
no commentswrite comment
1 2 3 4 5
3 more votes to show rating
add to favorites
launch autoscroll
font size
0
reset
guitar tuner
×
Best way to learn
"Yo Ya Me Voy"
Autoscroll
slow
fast
+/-
esc
set tempo
stop
Intro

G/-----------------------------------------------------------------
D/------------------22222222222222---------------------------------
A/---------------------------------33333333333333--555555555555----
E/---33333333333333------------------------------------------------


Tema
Yo ya me voy.... (X2)
G/-------------------------------------
D/-------------------------------------
A/-------------------------------------
E/----3333333--------------------------

y no me preguntes porque, y no me preguntes porque
G/-----------------------------------
D/----22222222-----------------------
A/-----------------------------------
E/-----------------------------------

si yo ya no voy a estar, si yo ya no voy a estar
G/-----------------------------------
D/-----------------------------------
A/-------333333333-------------------
E/-----------------------------------

y lo sabes...
G/-----------------------------------
D/-----------------------------------
A/-----------555555555---------------
E/-----------------------------------


yo ya no necesito
que me sigas mintiendo
G/-------------------------------------
D/-------------------------------------
A/-------------------------------------
E/----3333333--------------------------

si yo ya lo se
si yo ya lo se
G/-----------------------------------
D/----22222222-----------------------
A/-----------------------------------
E/-----------------------------------

no hay mas nada de que hablar
no hay mas nada de que hablar
G/-----------------------------------
D/-----------------------------------
A/-------333333333-------------------
E/-----------------------------------


si yo soy el que se va
G/-----------------------------------
D/-----------------------------------
A/-----------555555555---------------
E/-----------------------------------
voy a ir a tu casa a buscar mis cosas
G/-------------------------------------
D/-------------------------------------
A/-------------------------------------
E/----3333333--------------------------
y ojala no estes
y ojala no estes
G/-----------------------------------
D/----22222222-----------------------
A/-----------------------------------
E/-----------------------------------
no me pongas esa cara
no te vallas a arrepentir
G/-----------------------------------
D/-----------------------------------
A/-------333333333-------------------
E/-----------------------------------

porque yo ya no voy a estar..
G/-----------------------------------
D/-----------------------------------
A/-----------555555555---------------
E/-----------------------------------


cuando dice yo ya me voyyy si quieren pueden hacer esto

G/-------------------------------------------------------
D/------------------------22222222-----------------------
A/-----------------2-3-5-----------5 3333333----555555---
E/----3333333---5----------------------------------------

Corte...

G/---------------------------------------------
D/-------------22---22-------------------------
A/-----------------------33---33-------55--55--
E/---33---33-----------------------------------
Suggest correction
Give kudos to tab author, rate the tab!
1 2 3 4 5
comments
print report bad tab
guest
You may want to rate the tab now too:
select rating
Wanna post a correction for this tab? Suggest correction