Oops, an error
Loading. Please wait.

Our Days In Kansas Tab

1,316 views 4 this week
1 commentread comment
1 2 3 4 5
please rate
add to favorites
launch autoscroll
font size
0
reset
how to read this tab
guitar tuner
Tab Pro tools
  • play this tab
  • loop segment
  • change instrument
  • show fretboard
  • metronome
×
Best way to learn
"Our Days In Kansas"
Autoscroll
slow
fast
+/-
esc
set tempo
stop
Contributor
Our Days In Kansas
by Tullycraft

3/4 rhythm for the beginning and then switches to 4/4

Chords
F   |--3211| although at the end: |133211|
C   |-3555-|
D   |-5776-|
Bb  |-1333-|
G5  |355---|
Bb5 |-133--|
D5  |-577--|
C5  |-355--|

Plays this once
  F            C            D            A            A#
E ------1-----|------------|------------|------5-----|------6-----|
B ----1---1---|------5-----|------6-----|----5---5---|----6-------|
G --2-------2-|----5---5---|----7---7---|--6-------6-|--7---------|
D 3-----------|--5-------5-|--7-------7-|7-----------|8-----------|
A ------------|3-----------|5-----------|------------|------------|
E ------------|------------|------------|------------|------------|
  F            A#           C
E ------1-----|------6-----|------8-----|
B ----1-------|----6---6---|----8---8---| 
G --2---------|--7-------7-|--9-------9-| Then changes to
D 3-----------|8-----------|10----------| 
A ------------|------------|------------|
E ------------|------------|------------|

  F            C            D            A            A#
E ------1-----|------------|------------|------5-----|------6-----|
B ----1---1---|------5-----|------6-----|----5---5---|----6-------|
G ----2-----2-|----5---5---|----7---7---|----6-----6-|--7---------|
D 3---3-------|----5-----5-|----7-----7-|7---7-------|8-----------|
A ------------|3---3-------|5---5-------|------------|------------|
E ------------|------------|------------|------------|------------|
  F            A#           C
E ------1-----|------6-----|------8-----|
B ----1-------|----6---6---|----8---8---| 
G --2---------|--7-------7-|--9-------9-| And this plays throughout the
D 3-----------|8-----------|10----------| intro until the song picks up
A ------------|------------|------------| at "pep up the formula tonight"
E ------------|------------|------------|

        F                            C
Did you mean what you said when you told me you missed us
    D                    A
Without reservation, without plans for Christmas
 A#                        F
First part was right, the rest wasn't true
     A#                       C
The same goes for me and the same goes for you

           F                            C
Packed my things for the month but it's not necessary
   D                          A
I told you I'd stay but it's just temporary
     A#                       F
Like Swastika Girls who fell back on their looks
       A#                       C
We relied on the tricks and the recycled hooks

         F                       C
Did you want a response or just someone to edit?
     D                           A
It's not what you said, it's the way that you said it
     A#                            F
The longshoreman's daughter, when they spelled her name
       A#                             C
Found three chords of brilliance and rode them to fame all alone

(break)             F         
Pep up the formula tonight
                            D  
You're not obliged to do us favors
                    C
Disenchanted hearts unite
                          Bb           C
When you and I were candy ravers

(break)                     F
Krushchev's Ekranoplan had failed
                            D
Those weeks in August never seem fair
                            C
Our love is left to sink or sail
                               Bb          C
You cut the summer blonde from your hair

(break)                F
A little time is all I need
                          D
A disco bloodbath for the ages
                            C
The patience left to let it bleed
                        Bb          C
And a quill to fill the pages


G5                     Bb5
Side streets set ablaze
    D5                   C5
And all roads lead to maybe
             G5                   Bb5
Sometimes I think about those days
             D5                  C5
Sometimes I wish we'd kept the baby 
              G5                        Bb5
I don't know how things could have changed
        C5
At the latest

(break)                      F
Our days in Kansas wouldn't last
                        D
I never learned the KU fight song
                             C
Exchanging poisons from the past
                           Bb        C
I hadn't heard from you in so long

(break)                         F
And if the moonlight kills the flame
                              D
With all the moments we were meant to
                                   C
You know I'll tell the world your name
                             Bb         C
I couldn't let the world forget you


 D                   C             F   Bb
Things were so much easier back in  1993
   D                 C                  F
I loved you for the first time on that day
comments
We did not receive enough feedback on this tab! Please rate:
print report bad tab
1 2 3 4 5
1 comment total.
0 reply
Cringe1986 wrote on March 2 2010, 07:47 pm

Thank you so much for this tab, it's perfect and a joy to play.

I want to post or [tab]
guest
You may want to rate the tab now too:
select rating
Please do not post tabs as comments. Select "correction" instead!