Oops, an error
Loading. Please wait.

Mengagumimu Dari Jauh tab

by Tulus
3,452 views 6 this week
1 commentread comment
1 2 3 4 5
x 3
add to favorites
×
Save as Personal and add changes to this tab that will be seen only by you. Learn more ›
×
You can save this tab as Personal to edit and correct it or add notes. All changes will be seen only by you. Learn more »
launch autoscroll
font size
0
reset
how to read this tab
guitar tuner
edit
Autoscroll
slow
fast
+/-
esc
set tempo
stop
Author
Difficulty
-------------------------------------------------------------------------------
                          MENGAGUMIMU DARI JAUH - Tulus
-------------------------------------------------------------------------------
Tabbed by:ndermawan
E-mail:ndermawan@yahoo.com

Tuning: Standard

Reference: https://www.youtube.com/watch?v=lSVJIO_mlYE 

NOTE:   Reference is now deleted based on copyright...so
        Email me if you want a copy (for educational purposes)
        I hope that's not illegal :O

Cover link: https://www.youtube.com/watch?v=BAuUCdMq_7A

This is a deeecent cover if you're just looking to get a feel of the song and
cannot find audio of it around. That is not me playing in the video.

-------------------------------------------------------------------------------

One of my favourite songs! 

Also, might technically be easier to play on Capo 1? 
Thus avoiding having to play all the sharps..
But I do things the hard way.


Chords used:                  
------------       Alt. Alt.  Alt.
 F#maj7 D#m7 Bmaj7 D#m7 Bmaj7 F#maj7   A#m7 Bmaj7 C#

e|-------2-------------(7)-----------|--1------------------------------------|
B|--2----2----4----6----7-----11-----|--2----4----6--------------------------|
G|--3----3----3----6----8-----10-----|--1----3----6--------------------------|
D|--3----1----4----8----8-----11-----|--3----4----6--------------------------|
A|-(4)--------2----6----9-----9------|--1----2----4--------------------------|
E|--2-------------------7------------|---------------------------------------|

==============================================================================

Intro guitar 1:
---------------                            Alt.    Alt.    Alt.
    F#maj7 D#m7    Bmaj7   F#maj7  F#maj7  D#m7    Bmaj7   F#maj7

e|------------2-----------------------2--------------------------------------|
B|----2-2-----2-2-----4-------2-------2-2-----6-------7-------11-------------|
G|----3-3-----3-3-----3-3-----3-3-----3-3-----6-6-----8-8-----10-10----------|
D|----3-3--1--1-------4-4-----3-3-------------8-8-----9-8-----11-11----------|
A|-----------------2--2------------4--4----6--6------------9--9--------------|
E|----2--------------------2--2--------------------7--7----------------------|

Intro 2nd Guitar:
-----------------                          Alt.    Alt.    Alt.
    F#maj7 D#m7    Bmaj7   F#maj7  F#maj7  D#m7    Bmaj7   F#maj7

e|----2-2-----2-2-----2-2-----2-2--------------------------------------------|   the last 7-10-7 might sound 
B|-----2-------2-------2-------2------6-6--6h7--7-----7-7-----7--7-----------|<- weird, but I think it is
G|-------------------------------------6-------6-------8-------10------------|   what is actually played
D|---------1----------------------------------8------------------------------|   in the song. Your are welcome
A|-----------------2---------------4-------6---------------9-----------------|   to switch out 7 with 11 fret
E|--2----------------------2-----------------------7-------------------------|   as per normal chord shape.


==============================================================================


Prechorus:
----------
   A#m7  A#m7  Bmaj7               A#m7  A#m7  Bmaj7      C#

e|----1-----1---------2---4/6-2-----1-----1-----------2-4--------------------|
B|--2-----2---2-4---4---4-------4---2-2---2-2---4---4-----6-7----------------|
G|--1-----1-----3-------------------1-----1-----3---------6------------------|
D|--------------4-------------------------------4---------6------------------|
A|--1-----1-----2-------------------1-----1-----2---------4------------------|
E|---------------------------------------------------------------------------|


Detailed parts for the Chorus and outro sections are provided at the bottom




==============================================================================
                                CHORDS
==============================================================================

Intro Guitar 1                  X1                              0:00 - 0:08

Intro Guitar 1+2                X1                              0:09 - 0:18

Intro Guitar 1+2 + vocal oohs   X2                              0:19 - 0:36


Verse 1:                                                        0:37 - 0:54
--------
  F#maj7   D#m7   Bmaj7  F#maj7
Kisahmu harimu ku tahu semua
  F#maj7     D#m7  Bmaj7  F#maj7
tanpa kau berujar aku selami
  F#maj7  D#m7    Bmaj7   F#maj7
Gerakmu guraumu kemasan raga
  F#maj7    D#m7  Bmaj7  F#maj7
tanpa kau sadari aku pahami


==Intro Guitar 1+2==            X1                              0:55 - 1:03


Verse 2:                                                        1:04 - 1:22
--------
   F#maj7    D#m7     Bmaj7    F#maj7
Cinta memang mungkin inilah cinta
  F#maj7  D#m7 Bmaj7  F#maj7
apapun lagumu aku jiwai
   F#maj7    D#m7     Bmaj7    F#maj7
Cinta memang mungkin inilah cinta
   F#maj7  D#m7    Bmaj7  F#maj7
tanpa ku miliki rindu terasa


Prechorus:                                                      1:23 - 1:31
----------
A#m7 A#m7  Bmaj7
     ......Bukan tak percaya diri
A#m7 A#m7  Bmaj7            C#
     ......Karna aku tau diri


Chorus + Chorus guitar 2:                                       1:32 - 1:50
-------------------------
    F#maj7    D#m7    Bmaj7    C#
....Biar---kanku meme-lukmu tanpa 
    F#maj7    D#m7    Bmaj7   C#
memelukmu  mengagumi  mu    dari 
    F#maj7    D#m7    Bmaj7   C#
..jauh       Aku menjagamu tanpa 
    F#maj7    D#m7    Bmaj7   C#    (A#m7)
menjagamu   menyayangimu    dari jauh



Prechorus:                                                      1:51 - 1:58
----------
A#m7 A#m7  Bmaj7
     ......Bukan tak percaya diri
A#m7 A#m7  Bmaj7            C#
     ......Karna aku tau diri


Chorus + Chorus guitar 2:                                       1:59 - 2:17
-------------------------
    F#maj7    D#m7    Bmaj7    C#
....Biar---kanku meme-lukmu tanpa 
    F#maj7    D#m7    Bmaj7   C#
memelukmu  mengagumi  mu    dari 
    F#maj7    D#m7    Bmaj7   C#
..jauh       Aku menjagamu tanpa 
    F#maj7    D#m7    Bmaj7   C#    (A#m7)
menjagamu   menyayangimu    dari jauh



==Instrumental break: Intro Guitar 1+2== x1                     2:18 - 2:26



Verse 2 (repeat):                                               2:27 - 2:44
-----------------
   F#maj7    D#m7     Bmaj7    F#maj7
Cinta memang mungkin inilah cinta
  F#maj7  D#m7 Bmaj7  F#maj7
apapun lagumu aku jiwai
   F#maj7    D#m7     Bmaj7    F#maj7
Cinta memang mungkin inilah cinta
   F#maj7  D#m7    Bmaj7  F#maj7
tanpa ku miliki rindu terasa



Prechorus:                                                      2:45 - 2:53
----------
A#m7 A#m7  Bmaj7
     ......Bukan tak percaya diri
A#m7 A#m7  Bmaj7            C#
     ......Karna aku tau diri


Chorus:                                                         2:54 - 3:12
-------
    F#maj7    D#m7    Bmaj7    C#
....Biar---kanku meme-lukmu tanpa 
    F#maj7    D#m7    Bmaj7   C#
memelukmu  mengagumi  mu    dari 
    F#maj7    D#m7    Bmaj7   C#
..jauh       Aku menjagamu tanpa 
    F#maj7    D#m7    Bmaj7   C#    (A#m7)
menjagamu   menyayangimu    dari jauh



Prechorus:                                                      3:13 - 3:21
----------
A#m7 A#m7  Bmaj7
     ......Bukan tak percaya diri
A#m7 A#m7  Bmaj7            C#
     ......Karna aku tau diri


-Instrumental break outro-                                      3:22 - fade to end



==============================================================================
==============================================================================


Chorus Part 1+2:
----------------
Start at 1:32 & Repeat at 1:59

e|---------6-------6-------6-------6-------6-------6-------6-/-7--7-/-9------|
B|---------7-------7-------7-------7-------7-------7-------7-/-9--9-/-11-----|
G|---------------------------------------------------------------------------|
D|---------------------------------------------------------------------------|
A|---------------------------------------------------------------------------|
E|---------------------------------------------------------------------------| GUITAR 2
    F#maj7    D#m7    Bmaj7   C#    F#maj7    D#m7    Bmaj7   C#
e|------------2-------------------------------2------------------------------|
B|----2-2-----2-2-----4-------6-6-----2-2-----2-2-----4-------6-6------------|
G|----3-3-----3-3-----3-3-----6-6-----3-3-----3-3-----3-3-----6-6------------|
D|----3-3--1--1-------4-4-----6-6-----3-3--1--1-------4-4-----6-6------------|
A|-----------------2--2----4--4--------------------2--2----4--4--------------|
E|-2--2----------------------------2--2--------------------------------------| GUITAR 1 (Normal chords)



e|---------9-------9-------9-------9-------9-------9-------9-\-7--7-\-x------|
B|---------11------11------11------11------11------11-----11-\-9--9-\-x------|
G|---------------------------------------------------------------------------|
D|---------------------------------------------------------------------------|
A|---------------------------------------------------------------------------|
E|---------------------------------------------------------------------------| GUITAR 2
    F#maj7    D#m7    Bmaj7   C#    F#maj7    D#m7    Bmaj7   C#
e|------------2-------------------------------2------------------------------|
B|----2-2-----2-2-----4-------6-6-----2-2-----2-2-----4-------6-6------------|
G|----3-3-----3-3-----3-3-----6-6-----3-3-----3-3-----3-3-----6-6------------|
D|----3-3--1--1-------4-4-----6-6-----3-3--1--1-------4-4-----6-6------------|
A|-----------------2--2----4--4--------------------2--2----4--4--------------|
E|----2----------------------------2--2--------------------------------------| GUITAR 1 (Normal chords)


==============================================================================


Post chorus Instrumental (2:18):
--------------------------------           Alt.    Alt.    Alt.
    F#maj7 D#m7    Bmaj7   F#maj7  F#maj7  D#m7    Bmaj7   F#maj7

e|------------2-----------------------2--------------------------------------|
B|----2-2-----2-2-----4-------2-------2-2-----6-------7-------11-------------|
G|----3-3-----3-3-----3-3-----3-3-----3-3-----6-6-----8-8-----10-10----------|
D|----3-3--1--1-------4-4-----3-3-------------8-8-----9-8-----11-11----------|
A|-----------------2--2------------4--4----6--6------------9--9--------------|
E|----2--------------------2--2--------------------7--7----------------------|


e|---------6-------6-------6-------6---\---9---/---7---/---6------4-/-6------|
B|---------7-------7-------7-------7---\---11--/---9---/---7------6-/-7------|
G|---------------------------------------------------------------------------|
D|---------------------------------------------------------------------------|
A|---------------------------------------------------------------------------|
E|---------------------------------------------------------------------------| GUITAR 2


==============================================================================


Solo outro + Keychange chords:                                  3:22 - 3:30
------------------------------

e|---------------------------------------------------------------------------|
B|(9)-8~ ---------------11-9-8h9---8-6-------6------------8-\-6--------------|
G|---------------------------------------7-8---6/7------5--------------------|
D|----------------------------------------------------8----------------------|
A|---------------------------------------------------------------------------|
E|---------------------------------------------------------------------------| GUITAR 2

    D#maj7    Cm7     G#      A#    D#maj7    Cm7     G#      A#
e|---------------------------------------------------------------------------|
B|----8-8-----4-4-----4-4-----6-6-----8-8-----4-4-----4-4-----6-6------------|
G|----7-7-----3-3-----5-5-----7-7-----7-7-----3-3-----5-5-----7-7------------|
D|----8-8-----5-5-----6-6-----8-8-----8-8-----5-5-----6-6-----8-8------------|
A|----6----3----------6-6-----8-8--6--6----3----------6-6-----8-8------------|
E|-----------------4--4----6--6--------------------4--4----6--6--------------| GUITAR 1



                                                                3:31 - 3:39

e|-------6~ ------------8-----6----------10~ -----------------11~ -----------|  The part that comes in  
B|--------------------------------------------------------------1-3-4-6------|  from fret 1 on A string
G|-----------------------10\8---8p7-----------------------0-1-3--------------|  is actually from 
D|--------------------------------------------------0-1-3--------------------|  another guitar I think
A|----------------------------------------------1-3--------------------------|   
E|---------------------------------------------------------------------------| GUITAR 2 

    D#maj7    Cm7     G#      A#    D#maj7    Cm7     G#      A#
e|---------------------------------------------------------------------------|
B|----8-8-----4-4-----4-4-----6-6-----8-8-----4-4-----4-4-----6-6------------|
G|----7-7-----3-3-----5-5-----7-7-----7-7-----3-3-----5-5-----7-7------------|
D|----8-8-----5-5-----6-6-----8-8-----8-8-----5-5-----6-6-----8-8------------|
A|----6----3----------6-6-----8-8--6--6----3----------6-6-----8-8------------|
E|-----------------4--4----6--6--------------------4--4----6--6--------------| GUITAR 1



                                                                3:40 - end

e|---------------------------------------------------------------------------|
B|------8-8-6-6-4-4-------4-6/8-4-6-4-6-4-3-4-6-3~    fade-------------------|
G|------------------5---5----------------------------------------------------|
D|---------------------------------------------------------------------------|
A|---------------------------------------------------------------------------|
E|---------------------------------------------------------------------------| GUITAR 2

    D#maj7    Cm7     G#      A#    D#maj7    Cm7     G#      A#
e|---------------------------------------------------------------------------|
B|----8-8-----4-4-----4-4-----6-6-----8-8-----4-4-----4-4-----6-6------------|
G|----7-7-----3-3-----5-5-----7-7-----7-7-----3-3-----5-5-----7-7------------|
D|----8-8-----5-5-----6-6-----8-8-----8-8-----5-5-----6-6-----8-8------------|
A|----6----3----------6-6-----8-8--6--6----3----------6-6-----8-8------------|
E|-----------------4--4----6--6--------------------4--4----6--6--------------| GUITAR 1



I have tried recording myself over multiple layers playing each part on a phone app,
so if anyone wants a soundclip of that you are welcome to contact me too!


************************************

| /   slide up
| \   slide down
| h   hammer-on
| p   pull-off
| ~   vibrato
| +   harmonic
| x   Mute note
| b   Bend
| pb  Pre-bend
| br  Bend release
| pbr Pre-bend release
| brb Bend release bend

************************************

            
            
Suggest correction
Creating personal tab
Creating personal tab
You can edit any tab online and save it as your Personal.

You can edit, replace or remove any tab part or add personal notes – all changes will be seen only by you.

Personal tabs can be accessed anytime from any device, even offline.
Learn more »
Give kudos to tab author, rate the tab!
1 2 3 4 5
comments
print report bad tab
1 comment total.
0 reply
ndermawan 1,232 Jan 14, 2016 09:08 AM

Please rate if you liked it guys! I worked real hard on this one ;)
-------------------------------------------------------------------
Mohon di rate 5 bintang kalo ngebantu lu mainin nih lagu ya! Thanks

guest
You may want to rate the tab now too:
select rating
Wanna post a correction for this tab? Suggest correction