Oops, an error
Loading. Please wait.

Bizness bass

version 1
version 1

Whole song

4,279 views 3 this week
1 commentread comment
1 2 3 4 5
x 3
add to favorites
×
Save as Personal and add changes to this tab that will be seen only by you. Learn more ›
×
You can save this tab as Personal to edit and correct it or add notes. All changes will be seen only by you. Learn more »
launch autoscroll
font size
0
reset
guitar tuner
edit
Autoscroll
slow
fast
+/-
esc
set tempo
stop
My first tab! Good song and has a sweet bass line so thought I would contribute starting 
with this. Good band, you can check them out at http://tune-yards.com/
Standard tuning. The song has some tricky rhythm throughout so will take some time to 
get it right. The tab is pretty accurate but I'm not 100% sure on the transition from the 
verse to the chorus and parts of the outro.

Verse

G---|------------------------------|
D-3-|------------1------------3----|
A---|-----3-3------------3-3-------|
E---|-1-------------1--------------|

Chorus
G-------------|-----------------10-8----------|  (For the slides, I usually
D---------3-1-|-----66------/10------10-------|   start @ fret 4 on the A and
A----3-3------|-/8-----8-6---------------11---|   @ fret 8 on the D string)
E-1-----------|-------------------------------|

Last 2 bars in chorus
G---------------------------------|
D-------66--------/10--8----------|
A---/8------8-6------------6------|
E---------------------------------|

Outro (variation of verse, not entirely sure on the notes here)
G--------------8--------------10-------|
D-------10-10----------10-10-----------|
A--6-8------------6-8------------------|
E--------------------------------------|

For song structure and rhythm listen to the track and you should be able to figure it out easily!

            
            
Suggest correction
Creating personal tab
Creating personal tab
You can edit any tab online and save it as your Personal.

You can edit, replace or remove any tab part or add personal notes – all changes will be seen only by you.

Personal tabs can be accessed anytime from any device, even offline.
Learn more »
Give kudos to tab author, rate the tab!
1 2 3 4 5
comments
print report bad tab
1 comment total.
0 reply
electricnachos 10 Jan 18, 2012 10:16 AM

Slight correction. During the transition from verse to chorus, instead of hitting the 1 fret on the D string, I'm pretty sure it's an A note (open A string). This was giving me trouble but I think it's fits better.

guest
Wanna post a correction for this tab? Suggest correction