Oops, an error
Loading. Please wait.

Gangsta Bass Tab

2,033 views 12 this week
no commentswrite comment
1 2 3 4 5
accurate
x 1
add to favorites
launch autoscroll
font size
0
reset
guitar tuner
Tab Pro tools
  • play this tab
  • loop segment
  • change instrument
  • show fretboard
  • metronome
Autoscroll
slow
fast
+/-
esc
set tempo
stop
Contributor
Difficulty
intermediate
-------------------------------------------------------------------------------
                            GANGSTA - tUnE-yArDs
-------------------------------------------------------------------------------
Tabbed by: Brian Rogers
Email: brian@ysib.com

Tuning: 4 string standard

Played with slight fuzz effect

Intro (0:10)

G|------------12---------| }
D|---------13----13------| } (x 8)*
A|-------------------14--| }
E|6----------------------| }

* On 7th bar, slight rhythmic variation:
G|-------------12--------|
D|----------13----13-----|
A|-------------------14--|
E|6----------------------|

Verse 1 (0:43)

G|----------------|--------------------| }
D|----------------|--------------------| } (x 2)
A|----------------|--------------------| }
E|----------------|6----6----6----6----| }

Pre-verse 2 (0:55)

G|------------12---------| }
D|---------13----13------| } (x 4)
A|-------------------14--| }
E|6----------------------| }

Verse 2 (1:04)

G|----------------------|--------------------| }
D|----------13--\-13--\-|--------------------| } (x 3)
A|----------------------|--------------------| }
E|11--------------------|6----6----6----6----| }


Chorus 1 (1:18)

G|------------------|------------------| }
D|------------------|------------------| } (x 4)
A|------------------|2--------1--------| }
E|0--------2--------|------------------| }

Pre-verse 3 (1:37)

G|------------12---------| }
D|---------13----13------| } (x 4)*
A|-------------------14--| }
E|6----------------------| }

* On 3rd bar, slight rhythmic variation:
G|-------------12--------|
D|----------13----13-----|
A|-------------------14--|
E|6----------------------|

Verse 3 (1:46)

(Same as Verse 2, with 2 bars of silence afterward)

Chorus 2 (2:06)

(Same as Chorus 1)

Post-chorus 2

Free time
  (2:24)      (2:27)
G|------|----|----------------|----|
D|------|----|----------------|----|
A|6--6--|----|4---4---4---4---|----|
E|------|----|----------------|----|

  (2:33)
G|-----------------------------------|----|
D|8---8---8--------------------------|----|
A|------------6---6--6--6--10--8-----|----|
E|---------------------------------7-|----|

  (2:37)
G|----------------------------------|----|
D|----------------------------------|----|
A|6--6--6--4---4---4---4---4--4--4--|----|
E|----------------------------------|----|

  (2:43)
G|------------------------------------|----|
D|------------------------------------|----|
A|6---6---6---6---6---6---6--6--6--6--|----|
E|------------------------------------|----|

Chorus 3 (2:50)

G|---------------15---------|------14----13----13-------| }
D|------------16------16----|---------------------12----| } (x 4)
A|------14------------------|14----------------------14-| }
E|12------------------------|---------------------------| }

Ending (3:09)

G|--------------------|-----4----3---------| }
D|-----2----4---------|--------------------| } (x 7)
A|--------------------|2--------------1----| }
E|0--------------2----|--------------------| }

G|--------------------|-----4----3--------|
D|-----2----4---------|-------------------|
A|--------------------|2------------------|
E|0--------------2----|-------------------|
comments
We did not receive enough feedback on this tab! Please rate:
print report bad tab
1 2 3 4 5
I want to post or [tab]
guest
You may want to rate the tab now too:
select rating
Please do not post tabs as comments. Select "correction" instead!