Oops, an error
Loading. Please wait.

Tale From Black tab

version 2
version 2

Whole song

by Tunng
1,334 views 1 this week
2 commentsread comments
1 2 3 4 5
3 more votes to show rating
add to favorites
×
Save as Personal and add changes to this tab that will be seen only by you. Learn more ›
×
You can save this tab as Personal to edit and correct it or add notes. All changes will be seen only by you. Learn more »
launch autoscroll
font size
0
reset
how to read this tab
guitar tuner
edit
Autoscroll
slow
fast
+/-
esc
set tempo
stop
Author
-------------------------------------------------------------------------------
                             Tale From Black - Tunng
-------------------------------------------------------------------------------
Tabbed by: adeagle

Tuning: Drop C

Chord at very beginning:
D|-------------------||
A|-------------------||
F|-------------------||
C|----5--------------||
G|----3--------------||
C|----5--------------||

Guitar 1:

Part A:

D|-------------------------------------------------||
A|-------------------------------------------------||
F|-------------------------------------------------||
C|-5----2--5----3----2--3---0-----0---0------0-----||
G|----3------------3----------0---------0----------||
C|-5------------3-----------0---0-----0----0-------||

Part B:
D|-----------------------------------------------------||
A|-----------------------------------------------------||
F|-----------------------------------------------------||
C|-7----3--7----10----7--12/---7----5--7---7---5--7----||
G|----5-------------8-------------5----------5---------||
C|-7------------10-------------7-----------7-----------||

Guitar 2
Part A:
D|---10-----10--8-----8-----------------------||
A|------10---------10----10----10-10---10-----||
F|--------------------------7--------7--------||
C|--------------------------------------------||
G|--------------------------------------------||
C|--------------------------------------------||

Part B:
D|---12-----12--10------10-----------------------||
A|------10----------10-----10----10-10----10-----||
F|-----------------------------7--------7--------||
C|-----------------------------------------------||
G|-----------------------------------------------||
C|-----------------------------------------------||

Verse progression (both guitars):
Part A -> Part A -> Part B -> Part A
Suggest correction
Creating personal tab
Creating personal tab
You can edit any tab online and save it as your Personal.

You can edit, replace or remove any tab part or add personal notes – all changes will be seen only by you.

Personal tabs can be accessed anytime from any device, even offline.
Learn more »
Give kudos to tab author, rate the tab!
1 2 3 4 5
comments
print report bad tab
2 comments total.
0 reply
yampee 31 Dec 05, 2014 07:46 AM

-----------------------------------------------------------------------------
Tale From Black - Tunng
-----------------------------------------------------------------------------

Tabbed by: yampee

Tuning: The last version was nearly right with the tuning. I'm sure it's actually in Cm though. Watch out for tuning up you acoustic B string to C -might ping in your face.

Chord at very beginning:
D#|---------|
C |---------|
D#|----2----|
C |----2----|
G |----3----|
C |---------|

Part A:

D#|---------------------------------------------------------------------||
C |---------------------------------------------------------------------||
D#|---2------2---2-----0-----0----0-------------------------------------||
C |--------2----------------2----------0------0---0-----0-------0----0--||
G |---3--3-----3-------3--3-----3-----------0----------------0----------||
C |------------------------------------0--0-----0-------0---0-----0-=---||

Part B:

D#|-----------------------------------------------------------------||
C |---------------------------------------------------0-------------||
D#|---4------4---4-----7-----7----9-----4------4---4--------4---4---||
C |--------3----------------7----------------0-------------0--------||
G |---3--3-----3------/8--8-----8-------5--5-----5----5--5----5-----||
C |-----------------------------------------------------------------||

Verse progression:
Part A -> Part A -> Part B -> Part A

I'll leave the high bits to the next person.
soundcloud.com/mike_a_bingham

0 reply
yampee 31 Dec 05, 2014 07:47 AM, edited at 12:53 pm

Sorry - new to this sight. Won't let me delete post. How do I turn this in to a new version?

guest
You may want to rate the tab now too:
select rating
Wanna post a correction for this tab? Suggest correction