Oops, an error
Loading. Please wait.

Persetubuhan Sedarah Tab

1,498 views 1 this week
no commentswrite comment
1 2 3 4 5
3 more votes to show rating
add to favorites
launch autoscroll
font size
0
reset
how to read this tab
guitar tuner
Autoscroll
slow
fast
+/-
esc
set tempo
stop
Help us to improve Ultimate-Guitar.com Take our survey!
×
Difficulty
novice
-------------------------------------------------------------------------------
TURBIDITY – persetubuhan Sedarah
-------------------------------------------------------------------------------
Tabbed by  :  Luhur Legacy
Email     :  Luhurpambudi17@yahoo.com
Tuning    :  I don’t know if you feel with drop you can increase it


Riff A (0:00 – 0:27)
e|----------------------------------------------------------------------------------|
B|----------------------------------------------------------------------------------|
G|----------------------------------------------------------------------------------|
D|---1--2--4--2---1/2-1/2--4--2-----------------------------------------------------|
A|---1--2--4--2---1/2-1/2--4--2-----------------------------------------------------|
E|---1--2--4--2---1/2-1/2--4--2-----------------------------------------------------|
     
      
Riff B (0:28 – 0:40)
e|----------------------------------------|
B|----------------------------------------|
G|----------------------------------------|
D|----------------------------------------|
A|-------------------------------------4*-|
E|---1-2-1-2-4-2-1-2---1-2-1-2-4-2-1-2----|


Riff C (0:41 – 1:06)
e|-----------------------------------------------------------------------------|
B|-----------------------------------------------------------------------------|
G|-----------------------------------------------------------------------------|
D|---2-1-0-1-2--4-2-1-2--------------------------------------------------------|
A|---2-1-0-1-2--4-2-1-2--------------------------------------------------------|
E|---2-1-0-1-2--4-2-1-2--------------------------------------------------------|

BACK TO
Riff B (1:07 – 1:12)
Riff A (1:13 – 1:25)
Riff B (1:26 – 1:37)
Riff C (1:38 – 2:02)
Riff B (2:03 – 2:09)

Riff D  (2:10 - 2:41)
e|-----------------------------------------------------------------------------|
B|-----------------------------------------------------------------------------|
G|-----------------------------------------------------------------------------|
D|---2--1--4--3--6--5--6-4-3-4-------------------------------------------------|
A|---2--1--4--3--6--5--6-4-3-4-------------------------------------------------|
E|---2--1--4--3--6--5--6-4-3-4-------------------------------------------------|

Riff B (2:42 – 2:52)
Riff C (2:53 – 3:18)

Im pretty sure this is right, thanks for reading it, dont forget to rate it!

| /  slide up
| \  slide down
| h  hammer-on
| p  pull-off
| ~  vibrato
| +  harmonic
| x  Mute note

=================================================================================
Suggest correction
Give kudos to tab author, rate the tab!
1 2 3 4 5
comments
print report bad tab
guest
You may want to rate the tab now too:
select rating
Wanna post a correction for this tab? Suggest correction