Oops, an error
Loading. Please wait.

Babylon Forever tab

85 views 3 this week
no commentswrite comment
1 2 3 4 5
3 more votes to show rating
add to favorites
×
Save as Personal and add changes to this tab that will be seen only by you. Learn more ›
×
You can save this tab as Personal to edit and correct it or add notes. All changes will be seen only by you. Learn more »
launch autoscroll
font size
0
reset
how to read this tab
guitar tuner
edit
Autoscroll
slow
fast
+/-
esc
set tempo
stop
Author
Difficulty
[INTRO]

A, D, F, G 
A, D, F, G 

Eins, Zwei, Drei, Vier!


(GUITAR 1) x2
e|---------------------------------------------------------------------------|
B|---------------------------------------------------------------------------|
G|---------------------------------------------------------------------------|
D|---------------------------------------------------------------------------|
A|--0-0-7-7-5-5\3-3/5--0-0-7-7-5-5\3-3/5--0-0-7-7-5\3-0----------------------|
E|---------------------------------------------------------------------------|

(GUITAR 2) x2
e|---------------------------------------------------------------------------|
B|---------------------------------------------------------------------------|
G|-------------------7-7-7-7-7-7-7-7--10-10-10-10-10-10-10-10----------------|
D|--7-7-7-7-7-7-7-7--7-7-7-7-7-7-7-7--10-10-10-10-10-10-10-10----------------|
A|--7-7-7-7-7-7-7-7--5-5-5-5-5-5-5-5--8--8--8--8--8--8--8--8-----------------|
E|--5-5-5-5-5-5-5-5----------------------------------------------------------|

e|---------------------------------------------------------------------------|
B|---------------------------------------------------------------------------|
G|--12-12-12-12-12-12-12-12--------------------------------------------------|
D|--12-12-12-12-12-12-12-12--------------------------------------------------|
A|--10-10-10-10-10-10-10-10--------------------------------------------------|
E|---------------------------------------------------------------------------|


[VERSE pt.1] [Repeat 2x] 

e|---------------------------------------------------------------------------|
B|---------------------------------------------------------------------------|
G|-----7--10-----------------------------------------------------------------|
D|--7--7--10--5--------------------------------------------------------------|
A|--7--5--8---5--------------------------------------------------------------|
E|--5---------3--------------------------------------------------------------|
“See the girl on the corner!“


[VERSE pt.2] [Repeat 2x] 

e|---------------------------------------------------------------------------|
B|---------------------------------------------------------------------------|
G|-------------------7-7-7-7-7-7-7-7--10-10-10-10-10-10-10-10----------------|
D|--7-7-7-7-7-7-7-7--5-5-5-5-5-5-5-5--10-10-10-10-10-10-10-10----------------|
A|--5-5-5-5-5-5-5-5--5-5-5-5-5-5-5-5--8--8--8--8--8--8--8--8-----------------|
E|--5-5-5-5-5-5-5-5----------------------------------------------------------|
“See the smart kid dead by the tracks!”

e|---------------------------------------------------------------------------|
B|---------------------------------------------------------------------------|
G|---------------------------------------------------------------------------|
D|--5-5-5-5-5-5-5-5----------------------------------------------------------|
A|--5-5-5-5-5-5-5-5----------------------------------------------------------|
E|--3-3-3-3-3-3-3-3----------------------------------------------------------|

F                     G         A      D
“They're stuck in this Babylon forever (forever)
F                     G
They're stuck in this Babylon
            D                          E
And they're never gonna find their way home
F                     G
They're stuck in this Babylon…


(GUITAR 1) Repeat 2x …forever”
e|---------------------------------------------------------------------------|
B|---------------------------------------------------------------------------|
G|---------------------------------------------------------------------------|
D|---------------------------------------------------------------------------|
A|--0-0-7-7-5-5\3-3/5--0-0-7-7-5-5\3-3/5--0-0-7-7-5\3-0----------------------|
E|---------------------------------------------------------------------------|

(GUITAR 2) Repeat 2x
e|---------------------------------------------------------------------------|
B|---------------------------------------------------------------------------|
G|-------------------7-7-7-7-7-7-7-7--10-10-10-10-10-10-10-10----------------|
D|--7-7-7-7-7-7-7-7--7-7-7-7-7-7-7-7--10-10-10-10-10-10-10-10----------------|
A|--7-7-7-7-7-7-7-7--5-5-5-5-5-5-5-5--8--8--8--8--8--8--8--8-----------------|
E|--5-5-5-5-5-5-5-5----------------------------------------------------------|

e|---------------------------------------------------------------------------|
B|---------------------------------------------------------------------------|
G|--12-12-12-12-12-12-12-12--------------------------------------------------|
D|--12-12-12-12-12-12-12-12--------------------------------------------------|
A|--10-10-10-10-10-10-10-10--------------------------------------------------|
E|---------------------------------------------------------------------------|
[After this just repeat VERSE pt. 1 and 2]


“Breakout!” D, F, C   F, G#, G 2x 
[This part is played right before and during the solo]

[Then repeat Guitar 1 and 2 again]

(GUITAR 1) Repeat 2x
e|---------------------------------------------------------------------------|
B|---------------------------------------------------------------------------|
G|---------------------------------------------------------------------------|
D|---------------------------------------------------------------------------|
A|--0-0-7-7-5-5\3-3/5--0-0-7-7-5-5\3-3/5--0-0-7-7-5\3-0----------------------|
E|---------------------------------------------------------------------------|

(GUITAR 2) Repeat 2x
e|---------------------------------------------------------------------------|
B|---------------------------------------------------------------------------|
G|-------------------7-7-7-7-7-7-7-7--10-10-10-10-10-10-10-10----------------|
D|--7-7-7-7-7-7-7-7--7-7-7-7-7-7-7-7--10-10-10-10-10-10-10-10----------------|
A|--7-7-7-7-7-7-7-7--5-5-5-5-5-5-5-5--8--8--8--8--8--8--8--8-----------------|
E|--5-5-5-5-5-5-5-5----------------------------------------------------------|

e|---------------------------------------------------------------------------|
B|---------------------------------------------------------------------------|
G|--12-12-12-12-12-12-12-12--------------------------------------------------|
D|--12-12-12-12-12-12-12-12--------------------------------------------------|
A|--10-10-10-10-10-10-10-10--------------------------------------------------|
E|---------------------------------------------------------------------------|



************************************

| /  Slide up
| \  Slide down

************************************

            
            
Suggest correction
Creating personal tab
Creating personal tab
You can edit any tab online and save it as your Personal.

You can edit, replace or remove any tab part or add personal notes – all changes will be seen only by you.

Personal tabs can be accessed anytime from any device, even offline.
Learn more »
Give kudos to tab author, rate the tab!
1 2 3 4 5
comments
print report bad tab
guest
You may want to rate the tab now too:
select rating
Wanna post a correction for this tab? Suggest correction