Oops, an error
Loading. Please wait.

Death From Above tab

2,045 views 1 this week
1 commentread comment
1 2 3 4 5
x 4
add to favorites
×
Save as Personal and add changes to this tab that will be seen only by you. Learn more ›
×
You can save this tab as Personal to edit and correct it or add notes. All changes will be seen only by you. Learn more »
launch autoscroll
font size
0
reset
how to read this tab
guitar tuner
edit
Autoscroll
slow
fast
+/-
esc
set tempo
stop
Author
Song: Death From Above
Artist: Turbonegro
Tabbed by: xstaytruex

All right this song is pretty simple. There'S some little riffs with Wah missing, try to 
figure it out yourself.

VERSE:                                   --
e----------------------------------|       |
B----------------------------------|       |
G--6-6-6-6-6-6-6-6-6-6-6-6/9--9-9--|       |
D--6-6-6-6-6-6-6-6-6-6-6-6/9--9-9--| x3    |
A--4-4-4-4-4-4-4-4-4-4-4-4/7--7-7--|       |
E----------------------------------|       |
                                           |
 Then                                      | x3
e-----------------------------------|      |
B-----------------------------------|      |
G--6-6-6-6-6-6-6-6------------------|      |
D--6-6-6-6-6-6-6-6-7-7-7-7-9-9-9-9--|      |
A--4-4-4-4-4-4-4-4-7-7-7-7-9-9-9-9--|      |
E------------------5-5-5-5-7-7-7-7--|      |
                                         --


CHORUS:
e-----------------------------|
B-----------------------------|
G-----------------------------|
D--2-----------------5--7--5--| x3
A--2-----------------5--7--5--|
E--0-0-0-0-0-0-0-0-0-3--5--3--|
    [------P.M------]

e--------------------|
B--------------------|
G--------------------|
D--7--9--7--5--7--5--|
A--7--9--7--5--7--3--|
E--5--7--5--3--5--3--|

e-----------------------------|
B-----------------------------|
G-----------------------------|
D--2-----------------5--7--5--| x3
A--2-----------------5--7--5--|
E--0-0-0-0-0-0-0-0-0-3--5--3--|
    [------P.M------]

e--------------------|
B--------------------|
G--------------------|
D--7--9--7--5--7--5--|
A--7--9--7--5--7--3--|
E--5--7--5--3--5--3--|


BRIDGE:
e---------------------|
B---------------------|
G--5--7--9--12--5--7--|
D--5--7--9--12--5--7--|
A--3--5--7--10--3--5--|
E---------------------|
   x8 x8 x8 x8 x8 

VERSE:  
(In this one the second guitar plays higher
 for the first time you play the whole verse)
                                         --
e----------------------------------|       |
B----------------------------------|       |
G--6-6-6-6-6-6-6-6-6-6-6-6/9--9-9--|       |
D--6-6-6-6-6-6-6-6-6-6-6-6/9--9-9--| x3    |
A--4-4-4-4-4-4-4-4-4-4-4-4/7--7-7--|       |
E----------------------------------|       |
                                           |
 Then                                      | x3
e-----------------------------------|      |
B-----------------------------------|      |
G--6-6-6-6-6-6-6-6------------------|      |
D--6-6-6-6-6-6-6-6-7-7-7-7-9-9-9-9--|      |
A--4-4-4-4-4-4-4-4-7-7-7-7-9-9-9-9--|      |
E------------------5-5-5-5-7-7-7-7--|      |
                                         --


CHORUS:
e-----------------------------|
B-----------------------------|
G-----------------------------|
D--2-----------------5--7--5--| x3
A--2-----------------5--7--5--|
E--0-0-0-0-0-0-0-0-0-3--5--3--|
    [------P.M------]

e--------------------|
B--------------------|
G--------------------|
D--7--9--7--5--7--5--|
A--7--9--7--5--7--3--|
E--5--7--5--3--5--3--|

e-----------------------------|
B-----------------------------|
G-----------------------------|
D--2-----------------5--7--5--| x3
A--2-----------------5--7--5--|
E--0-0-0-0-0-0-0-0-0-3--5--3--|
    [------P.M------]

e--------------------|
B--------------------|
G--------------------|
D--7--9--7--5--7--5--|
A--7--9--7--5--7--3--|
E--5--7--5--3--5--3--|


BRIDGE:
e---------------------|
B---------------------|
G--5--7--9--12--5--7--|
D--5--7--9--12--5--7--|
A--3--5--7--10--3--5--|
E---------------------|
   x8 x8 x8 x8 x8

VERSE:                                   --
e----------------------------------|       |
B----------------------------------|       |
G--6-6-6-6-6-6-6-6-6-6-6-6/9--9-9--|       |
D--6-6-6-6-6-6-6-6-6-6-6-6/9--9-9--| x3    |
A--4-4-4-4-4-4-4-4-4-4-4-4/7--7-7--|       |
E----------------------------------|       |
                                           |
 Then                                      | x3
e-----------------------------------|      |
B-----------------------------------|      |
G--6-6-6-6-6-6-6-6------------------|      |
D--6-6-6-6-6-6-6-6-7-7-7-7-9-9-9-9--|      |
A--4-4-4-4-4-4-4-4-7-7-7-7-9-9-9-9--|      |
E------------------5-5-5-5-7-7-7-7--|      |
                                         --

OUTRO:
e------|
B------|
G-6-6--|
D-6-6--|
A-4-4--|
E------|

> ENJOY! <
Suggest correction
Creating personal tab
Creating personal tab
You can edit any tab online and save it as your Personal.

You can edit, replace or remove any tab part or add personal notes – all changes will be seen only by you.

Personal tabs can be accessed anytime from any device, even offline.
Learn more »
comments
print report bad tab
1 comment total.
+1 reply
peaceman_16 112 Apr 26, 2008 01:13 PM

only a bit right. verse and refrain are false. they sound like this:

:-------------------------------------:
:-------------------------------------:
:-7~9-9-9-9-9-9-9-9-9-9--12--12-12-12-:
:-7~9-9-9-9-9-9-9-9-9-9--12--12-12-12-:
:-5~7-7-7-7-7-7-7-7-7-7--10--10-10-10-:
:-5~7-7-7-7-7-7-7-7-7-7--10--10-10-10-:

:--------------------------- --------------------|
:--------------------------- --------------------|
:--------------------------- --------------------|
:-2-----------2-5--7--5-2--(3X)--7--8--7--5--7-5---|
:-2-----------2-5--7--5-2--- --7--8--7--5--7-5-2-|
:-0-0-0-0-0-0-0-3--5--3-0-0- --5--6--5--3--5-3-0-|

(E palmmuted)

guest
You may want to rate the tab now too:
select rating
Wanna post a correction for this tab? Suggest correction