Oops, an error
Loading. Please wait.

Everybody Sell Your Bodyto The Night Tab

1,100 views 3 this week
2 commentsread comments
1 2 3 4 5
accurate
x 3
add to favorites
launch autoscroll
font size
0
reset
how to read this tab
guitar tuner
Autoscroll
slow
fast
+/-
esc
set tempo
stop
Help us to improve Ultimate-Guitar.com Take our survey!
×
Difficulty
intermediate
Intro/Chours GUitar one starts, then guitar two comes in after with heavier distortion
|-------------------------------------------------------------------|--|
|-------------------------------------------------------------------|--|
|---------------------7\9--5*5*-------------7-----------------------|--|
|----------5-------7-------5*5*----------5---7-7-5------------------|--|
|------5h7-----5h7----5\7--5*5*------5h7----------------------------|--|
|12/-00---0--0----0--------5*5*---------0--0------------------------|--|
PM   ..   .  .    .      Hamonics       .  .

guitar two.
|------------|--|
|------------|--|Play this at the end
|------------|--|of the second time
|------------|--|the first riff is played.
|--7~--------|--|
|--5~--------|--|

Guitar one
|-------------------------------------------------------------------|--|Play this while the
|-------------------------------------------------------------------|--|intro riff is being
|------------------55555555-----------------------------------------|--|played after the 
in.
|-2222222222222222-55555555-77777777--------------------------------|--|
|-2222222222222222-33333333-77777777--------------------------------|--|
|-0000000000000000----------55555555--------------------------------|--|

Guitar two.
|-------------------------------------------------------------------|--|
|-------------------------------------------------------------------|--|
|---------------------7\9--5*5*-------------7-----------------------|--|
|----------5-------7-------5*5*----------5---7-7-5------------------|--|
|------5h7-----5h7----5\7--5*5*------5h7----------------------------|--|
|12/-00---0--0----0--------5*5*---------0--0------------------------|--|
PM   ..   .  .    .      Hamonics       .  .

|-------------------------------------------------------------------|--|
|-------------------------------------------------------------------|--|
|------------------------------55-5-5-55-5-5------------------------|--|
|-22-2-2-22-2-2-22-2-2-22-2-2--55-5-5-55-5-5-77-7-7-77-7-7----------|--|
|-22-2-2-22-2-2-22-2-2-22-2-2--33-3-3-33-3-3-77-7-7-77-7-7----------|--|
|-00-0-0-00-0-0-00-0-0-00-0-0----------------55-5-5-55-5-5----------|--|
  ..   .    .   ..   .    .    ..   .    .   ..   .    .

|-------------------------------------------------------------------|--|
|-------------------------------------------------------------------|--|
|----------------------------------------7~-------------------------|--|
|-2~--5~--7~--10~--play--------------9~--7~-------------------------|--|Guitar one
|-2~--5~--7~--10~--twice-------------9~--5~-------------------------|--|
|-0~--3~--5~--8-~--------------------7~-----------------------------|--|


|-------------------------------------------10h12-13b(14)-13b(14)-13b(14)p12--|--|
|---------------------------------8--8-10h12--------------------------------12|--|
|-9p7--------------------------7h9--7-----------------------------------------|--|
|----9p7-7/5----------------7h9-----------------------------------------------|--|Guitar two
|------------7p5--------------------------------------------------------------|--|
|-----------------------------------------------------------------------------|--|


|-------------------------------------------------------------------|--|
|----------88-------------------------------------------------------|--|
|-99-7h-9--77--------99-7h-9-7-999-7-9-7----------------------------|--|
|-99-7h-9------------99-7h-9-7-999-7-9-7----------------------------|--|Guitar one
|-------------------------------------------------------------------|--|
|-------------------------------------------------------------------|--|


|-------------------------------------------------------------------|--|
|-------------------------------------------------------------------|--|
|-------------------55555555----------------------------------------|--|
|-2222222222222222--55555555-77777777-------------------------------|--|Guitar two
|-2222222222222222--33333333-77777777-------------------------------|--|
|-0000000000000000-----------55555555-------------------------------|--|


|-------------------------------------------------------------------|--|
|-------------------------------------------------------------------|--|
|---------------------7\9--5*5*-------------7-----------------------|--|
|----------5-------7-------5*5*----------5---7-7-5------------------|--|Guitar One
|------5h7-----5h7----5\7--5*5*------5h7----------------------------|--|
|12/-00---0--0----0--------5*5*---------0--0------------------------|--|
PM   ..   .  .    .      Hamonics       .  .


|-------------------------------------------------------------------|--|
|-------------------------------------------------------------------|--|
|------------------55555555-----------------------------------------|--|GUitar two
|-2222222222222222-55555555-77777777--------------------------------|--|
|-2222222222222222-33333333-77777777--------------------------------|--|
|-0000000000000000----------55555555--------------------------------|--|

|------------------12---12------------------------------------------|--|
|----------8-10-12b--12b--12b\--------------------------------------|--|
|-----7-7h9---------------------------------------------------------|--|Guitar two Pre 
riff
|--7h9-9------------------------------------------------------------|--|
|-------------------------------------------------------------------|--|
|-------------------------------------------------------------------|--|

|-------------------------------------------------------------------|--|
|-------------------------------------------------------------------|--|
|---------------------7\9--5*5*-------------7-----------------------|--|
|----------5-------7-------5*5*----------5---7-7-5------------------|--|Guitar One
|------5h7-----5h7----5\7--5*5*------5h7----------------------------|--|
|12/-00---0--0----0--------5*5*---------0--0------------------------|--|
PM   ..   .  .    .      Hamonics       .  .


|-------------------------------------------------------------------|--|
|-------------------------------------------------------------------|--|
|------------------------------55-5-5-55-5-5------------------------|--|
|-22-2-2-22-2-2-22-2-2-22-2-2--55-5-5-55-5-5-77-7-7-77-7-7----------|--|
|-22-2-2-22-2-2-22-2-2-22-2-2--33-3-3-33-3-3-77-7-7-77-7-7----------|--|
|-00-0-0-00-0-0-00-0-0-00-0-0----------------55-5-5-55-5-5----------|--|
  ..   .    .   ..   .    .    ..   .    .   ..   .    .

|-------------------------------------------------------------------|--|
|-------------------------------------------------------------------|--|
|------------------55555555-----------------------------------------|--|
|-2222222222222222-55555555-77777777--------------------------------|--|
|-2222222222222222-33333333-77777777--------------------------------|--|
|-0000000000000000----------55555555--------------------------------|--|


Repeat basically everything I wrote before here haha...minus the intro.

|-----------------------------------------------------------------------------------------------|--|
|-----------------------------------------------------------------------------------------------|--|

both guitars
|-----------------------------------------------------------------------------------------------|--|
|--77-7777-77-77--1010-10101010-1010-1010---9-9-9-9-9-9-9-9-9-9---1212-12121212-1212-1212-------|--|
|-----------------------------------------------------------------------------------------------|--|


|-------------------------------------------------------------------|--|
|-------------------------------------------------------------------|--|
|-------------------------------------------------------------------|--|Guitar one
|-555-4---555-4---555-4--7~-----------------------------------------|--|
|-333-2---333-2---333-2--5~-----------------------------------------|--|
|-------------------------------------------------------------------|--|

|-------------------------------------------------------------------|--|
|--------------12b--------------------------------------------------|--|
|------11b----------------------------------------------------------|--|
|------------------------7~-----------------------------------------|--|Guitar two
|------------------------5~-----------------------------------------|--|
|-------------------------------------------------------------------|--|


|-------------------------------------------------------------------|--|
|----------88-------------------------------------------------------|--|
|-99-7h-9--77--------99-7h-9-7-999-7-9-7----------------------------|--|
|-99-7h-9------------99-7h-9-7-999-7-9-7----------------------------|--|Guitar one
|-------------------------------------------------------------------|--|
|-------------------------------------------------------------------|--|

play this 6 times

|-------------------------------------------------------------------|--|
|-------------------------------------------------------------------|--|
|-------------------55555555----------------------------------------|--|
|-2222222222222222--55555555-77777777-------------------------------|--|Guitar two
|-2222222222222222--33333333-77777777-------------------------------|--|
|-0000000000000000-----------55555555-------------------------------|--|


Outro

|-------------------------------------------------------------------|--|
|-------------------------------------------------------------------|--|
|--55555555-77777777-22222222-555-4--7--9---------------------------|--|
|--55555555-77777777-22222222-555-4--7--9---------------------------|--|Guitar one
|--33333333-55555555-00000000-333-2--5--7---------------------------|--|
|-------------------------------------------------------------------|--|


|-------------------------------------------------------------------|--|
|-------------------------------------------------------------------|--|
|-------------------55555555----------------------------------------|--|
|-2222222222222222--55555555-77777777-------------------------------|--|Guitar two
|-2222222222222222--33333333-77777777-------------------------------|--|
|-0000000000000000-----------55555555-------------------------------|--|

|-------------------------------------------------------------------|--|
|----------88-------------------------------------------------------|--|
|-99-7h-9--77--------99-7h-9-7-999-7-9-7----------------------------|--|
|-99-7h-9------------99-7h-9-7-999-7-9-7----------------------------|--|Guitar one
|-------------------------------------------------------------------|--|
|-------------------------------------------------------------------|--|


|-------------------------------------------------------------------|--|
|-------------------------------------------------------------------|--|
|----7-9-7-9-11--15b------------------------------------------------|--|
|-7h9---------------------------------------------------------------|--|Guitar two
|-------------------------------------------------------------------|--|
|-------------------------------------------------------------------|--|

I know there are a few mistakes so don't be all "rah rah rah you forgot this note" or 
wasn't palm muted"...I don't care hahaha...
Turbonegro = best band ever.
Any Questions or comments, you can e-mail me at Fry_bassist@hotmail.com
Suggest correction
What's this?
You can suggest a correction to this tab. Community and Mods will review your correction and vote to approve or reject it.
comments
We did not receive enough feedback on this tab! Please rate:
print report bad tab
1 2 3 4 5
2 comments total.
0 reply
Tom Cahill 49 wrote on August 4 2007, 05:03 am

champion tab brother

0 reply
oliver105 67 wrote on June 15 2008, 07:41 am

This is quite chaotic...

guest
You may want to rate the tab now too:
select rating
Please do not post tabs as comments. Select "correction" instead!