Oops, an error
Loading. Please wait.

Fuck The World Tab

version 1
version 1

Intro

Whole song

Interactive

7,126 views 3 this week
1 commentread comment
1 2 3 4 5
accurate
x 4
add to favorites
launch autoscroll
font size
0
reset
how to read this tab
guitar tuner
Tab Pro tools
  • play this tab
  • loop segment
  • change instrument
  • show fretboard
  • metronome
×
Best way to learn
"Fuck The World"
Autoscroll
slow
fast
+/-
esc
set tempo
stop
Contributor
E|--------------------------------------------------0------|
B|------------------------0--------010--0---------0---1-0--|
G|-------------------0------2-0-----------2-0---0----------|
D|----2---0-2--2-0-4---4--------2-------------2------------|
A|------2--------------------------------------------------|
E|-0-------------------------------------------------------|


E|---------------------------------|
B|------------------------0--------|
G|-------------------0------2-0----|
D|----2--4-0-2-2-0-4---4--------2--|
A|---------------------------------|
E|-0-------------------------------|
comments
print report bad tab
1 comment total.
0 reply
rasmusvonrupp wrote on July 26 2003, 12:00 am

This sounds all wrong...

I think it should be like this:

e|----------------------------------|---------------------------------|
B|----------------------------------|--------------------------5-3-0--|
G|----------------------0-----4-2-0-|-------4/5\4--------0------------|
D|----2---0-2---2-----4-----2-------|---2--------------4-----2--------|
A|------2---------2/5-----3---------|-----2--------2/5-----3----------|
E|-0----------0---------------------|-0-------------------------------|


e|----------------------------------|
B|----------------------------------|
G|-------------------0-----4-2-0----|
D|-----2-4-0-2-----4-----2----------|
A|---2---------2/5-----3------------|
E|-0--------------------------------|

I want to post or [tab]
guest
You may want to rate the tab now too:
select rating
Please do not post tabs as comments. Select "correction" instead!