Oops, an error
Loading. Please wait.

Prince Of The Rodeo intro tab

version 1
version 1

Intro

Interactive

9,113 views 9 this week
3 commentsread comments
1 2 3 4 5
x 5
add to favorites
×
Save as Personal and add changes to this tab that will be seen only by you. Learn more ›
×
You can save this tab as Personal to edit and correct it or add notes. All changes will be seen only by you. Learn more »
launch autoscroll
font size
0
reset
how to read this tab
guitar tuner
edit
Autoscroll
slow
fast
+/-
esc
set tempo
stop
Author
Awesome Riff by Norways best band ever.


E|-----|------------------------------------|
B|-----|------------------------------------|
G|-----|-------------------5h7p5------------| 4x
D|-----|---------7----------------5h7p5h7---|
A|-----|--5h7p5--5---5h7--------------------|
E|--/5-|------------------------------------|
  1st
  Time
  Only

My first Tab ever. So Don`t kill me if I`m wrong. 
Only thing i`m sure of is that im in the right "box".
Saw him Live, playing at the 5th fret.

PS: Check out the album "apocalypse dudes"

            
            
Suggest correction
Creating personal tab
Creating personal tab
You can edit any tab online and save it as your Personal.

You can edit, replace or remove any tab part or add personal notes – all changes will be seen only by you.

Personal tabs can be accessed anytime from any device, even offline.
Learn more »
comments
print report bad tab
3 comments total.
0 reply
EuroJugend 30 May 29, 2004 08:00 PM

Actually, it's all wrong:P
You are right about him playing in the fifth fret tho...:P

It's supposed to be something like this:
e|------------------------------------|
B|-----------5---------7b8-7----------|
G|-----------5---------7b8-7-5h7p5----|
D|-----5h7-----0-0-5h7----------------|
A|-0-0-----0--------------------------|
E|------------------------------------|

Slide down from the 12th fret on the A string the first time...

0 reply
shibby013 62 Aug 18, 2005 08:00 PM

yeh you are both not perfectly right but if u experiment im sure u can get near it ive been playing it like this:

e]---------------------------
b]----------5--------8b--8bp7
g]----------5--------8b--8bp7
d]-------5h7--5--5h7---------
a]--5h7----------------------
e]---------------------------

bp is bend and pull off at the same time

0 reply
meldre 50 Dec 26, 2005 08:22 AM

wrong

guest
You may want to rate the tab now too:
select rating
Wanna post a correction for this tab? Suggest correction