Oops, an error
Loading. Please wait.

El Metro Bass Tab

187 views 1 this week
no commentswrite comment
1 2 3 4 5
excellent!
x 1
add to favorites
launch autoscroll
font size
0
reset
guitar tuner
Tab Pro tools
  • play this tab
  • loop segment
  • change instrument
  • show fretboard
  • metronome
Autoscroll
slow
fast
+/-
esc
set tempo
stop
Contributor
Difficulty
advanced
----------------------------------------------------------------------------
			     El Metro - Turbopotamos
----------------------------------------------------------------------------

G|-----------------|
D|-1/3-1-----------|
A|-------3-2-1-----|
E|-------------4-3-|

G|-----------------|
D|-----------------| X8
A|---------1-3-4-3-|
E|-1-3-4-3---------|

G|---------------------------------|
D|-3-1-----------------------------|
A|-----3-2-1-3-4-3---------1-3-4-3-|
E|-----------------1-3-4-3---------|

G|-----------------|
D|-----------------| X2
A|---------1-3-4-3-|
E|-1-3-4-3---------|

G|---------------------------------|
D|-3-1-----------------------------|
A|-----3-2-1-3-4-3---------1-3-4-3-|
E|-----------------1-3-4-3---------|

G|-----------------|
D|-----------------| X2
A|---------1-3-4-3-|
E|-1-3-4-3---------|

G|-----------------|
D|-----------------| X2
A|-----1---3---4-3-|
E|-1---------------|

G|-----------------|
D|-----------------| X2
A|---------1-3-4-3-|
E|-1-3-4-3---------|

G|---------------------------------|
D|-3-1-----------------------------|
A|-----3-2-1-3-4-3---------1-3-4-3-|
E|-----------------1-3-4-3---------|

G|-----------------|
D|-----------------| X2
A|---------1-3-4-3-|
E|-1-3-4-3---------|

G|-------------------------|
D|-1/3-3-3-1/3-3-3---------| X3
A|-----------------1-3-4-3-|
E|-------------------------|

G|-----------------|
D|---------1/31----|
A|-------------321-|
E|-1-3-4-3---------|

G|-----------------------------|
D|-3311------------------------| X2
A|-----3322113344----------1-1-|
E|---------------3411334434----|

G|-----------------|
D|-----------------| X8
A|---------1-3-4-3-|
E|-1-3-4-3---------|

G|---------------------------------|
D|-3-1-----------------------------| X2
A|-----3-2-1-3-4-3---------1-3-4-3-|
E|-----------------1-3-4-3---------|

G|-----------------|
D|-----------------| X4
A|---------1-3-4-3-|
E|-1-3-4-3---------|

G|-----------------|
D|-----------------|
A|-----1---3---4-3-|
E|-1---------------|

G|-------------------------|
D|-----------------1/3-1/3-| X2
A|-----1/3-1/3-1-4---------|
E|-1-4---------------------|

G|-----------------|
D|-----------------| X4
A|---------1-3-4-3-|
E|-1-3-4-3---------|

G|-----------------|
D|-3-5-6-5---------| X4
A|---------1-3-4-3-|
E|-----------------|

G|------------------------------|
D|------------------------------|
A|---------1-3-4-3---------4--3-|
E|-1-3-4-3---------1-3-4-3------|

G|----------------------------------------|---------|
D|-------------------------1/3-1--------3-|----3----|
A|---------1-3-4-3---------------3-1------|---------|
E|-1-3-4-3---------1-3-4-3-----------4-1--|---------|

http://www.turbopotamos.com
comments
We did not receive enough feedback on this tab! Please rate:
print report bad tab
1 2 3 4 5
I want to post or [tab]
guest
You may want to rate the tab now too:
select rating
Please do not post tabs as comments. Select "correction" instead!