Oops, an error
Loading. Please wait.

Beatle-Thonne Tab

by Turf
10 views 1 this week
no commentswrite comment
1 2 3 4 5
3 more votes to show rating
add to favorites
×
Save as Personal and add changes to this tab that will be seen only by you. Learn more ›
×
You can save this tab as Personal to edit and correct it or add notes. All changes will be seen only by you. Learn more »
save as personal
new!
launch autoscroll
font size
0
reset
how to read this tab
guitar tuner
Autoscroll
slow
fast
+/-
esc
set tempo
stop
Interprete: Turf
Titulo: BEATLE-THONNE
Album: Una Pila De Vida
Transcripción: Marcelo Villar (Río Cuarto, Córdoba)

(introducción)

    Em             Bm            G               Am             
1|--------0--------------2-------------3---------------0--------------
2|----------0--------------3-------------0---------------1------------
3|------------0--------------4-------------0---------2-----2----------
4|------2-------2------4-------4-----0-------0-----2---------2--------
5|----2--------------2-------------2-------------0-----------0--------
6|--0-----------0--2-----------2-3-----------3------------------------


    C             Bm            Em          A
1|--------0-------------2---------------0-------0---------------------
2|----------1-------------3-----------0---0-------0-------------------
3|------0-----0-------4-----4---------------3-2-----2-----------------
4|----2-------------4---------------2---------------------------------
5|--3-----------3-2-----------2---2-----------------------------------
6|------------------------------0-------------------------------------


Cualquier duda cosulta o sugerencia: marcelovillar@
Suggest correction
Give kudos to tab author, rate the tab!
1 2 3 4 5
comments
print report bad tab
guest
Wanna post a correction for this tab? Suggest correction