Oops, an error
Loading. Please wait.

Chicas Malas Tab

by Turf
18 views 1 this week
no commentswrite comment
1 2 3 4 5
3 more votes to show rating
add to favorites
×
Save as Personal and add changes to this tab that will be seen only by you. Learn more ›
×
You can save this tab as Personal to edit and correct it or add notes. All changes will be seen only by you. Learn more »
save as personal
new!
launch autoscroll
font size
0
reset
how to read this tab
guitar tuner
Autoscroll
slow
fast
+/-
esc
set tempo
stop
Chicas malas

Riff1

B5                   Riff2
el amor le da dinero
F#5                      Riff3
y es el fruto del placer
E5(1)                        Riff4
que te hace vibrar el cuerpo
B5                              Riff2
y en la cama te hara enloqueser

siempre fue mucho mas lista
que las chicas de su edad
mientras todas estudiaban
ella se escapaba a trabajar
porque ellas son

B5               D5 E5(2)
chicas malas
B5                      Riff5
porfavor portenmen mal
B5              D5 E5(2)
chicas malas
B5                      Riff6
por favor portensen mal

Riff1

baila como poseida
jime como un animal
se quiere tomar mi sangre
                              Riff5
porque forma parte del ritual

no leyo los reglamentos
de conducta y de moral
tiene propios mandamientos
que tampoco los va a respetar
porque ellas son

chicas malas
por favor portenmen mal
chicas malas
por favor portensen mal

Riff7

B Em

     B
el amor le da dinero
          Em
y es el fruto del placer
          B
que te hace vibrar el cuerpo
         Em
y en la cama te va a enloqueser
         B
siempre fue mucho mas lista
          Em
que las chicas de su edad
       B
si queres podes amarla
      Em
pero vas a tener que pagar

chicas malas
porfavor portenmen mal
chicas malas
por favor portensen mal

Riff7

chicas malas
chicas malas
chicas malas

B5

Riff1
e|-------------|
B|-------------|
G|-------------|
D|--2h3h2-0----|
A|----------2--|
E|-------------|

Riff2             Riff3           Riff4       Riff5
e|---------------|---------------|-----------|---------------------|
B|-----12----10--|---------------|-----------|-----12--------------|
G|--11----11-----|-------9-11-9--|----9---7--|--11----11-9-8-9-11--|
D|---------------|--9h11---------|--9---9----|---------------------|
A|---------------|---------------|-----------|---------------------|
E|---------------|---------------|-----------|---------------------|

Riff6
e|-------------|
B|-------------|
G|-------------|
D|--2h4h2-0-2--|
A|----------0--|
E|-------------|

Riff7
e|--------------------------|--------|
B|--------------------------|--------|
G|--------------------------|--------|
D|--------------------------|--------|
A|--2-2-0-2--0-2-0-2-0------|-----0--|
E|---------------------2-0--|-0-2----|

Acordes
e|---------------------------2---3--|
B|---------------------------4---5--|
G|---------------------------4---4--|
D|--4---------------9----7---4---5--|
A|--2---4-----2-----7----5---2------|
E|------2-----0--------------2------|
    B5 F#5  E5(1) E5(2)  D5  B   Em
Suggest correction
Give kudos to tab author, rate the tab!
1 2 3 4 5
comments
print report bad tab
guest
Wanna post a correction for this tab? Suggest correction