Oops, an error
Loading. Please wait.

Cronica Tv Bass Tab

by Turf
24 views 1 this week
no commentswrite comment
1 2 3 4 5
3 more votes to show rating
add to favorites
launch autoscroll
font size
0
reset
guitar tuner
Autoscroll
slow
fast
+/-
esc
set tempo
stop
Help us to improve Ultimate-Guitar.com Take our survey!
×
Intro
G|------------------------|------------------------------------------|---------|
D|------------------------|------44-55-----44-55---------------------|---------|
A|-55-2\5/2--5------------|-55-77-----55-77----------22-33-----22-33-|---------|
E|------------33-44-55-66-|---------------------33-55-----33-55------|-3-5-6-8-|
 |    CUATRO    Veces     |           DOS         Veces              |

Verso
G|------------------------|x4
D|------------------------|
A|-55-2\5/2--5------------|
E|------------33-44-55-66-|

Coro
G|------------------------------------------|x2
D|------44-55-----44-55---------------------|
A|-55-77-----55-77----------22-33-----22-33-|
E|---------------------33-55-----33-55------|

Verso
G|------------------------|x4
D|------------------------|
A|-55-2\5/2--5------------|
E|------------33-44-55-66-|

Verso 2 ('Vamos Ya!...')
G|-------------------------------------------------|
D|--------------44-55-----44-55--------------44-55-|
A|-(8)-(7)-55-77-----55-77------(8)-(7)-55-77------|
E|-------------------------------------------------|

Coro
G|------------------------------------------|x2
D|------44-55-----44-55---------------------|
A|-55-77-----55-77----------22-33-----22-33-|
E|---------------------33-55-----33-55------|

Puente
G|---------|
D|---------|
A|---------|
E|-3-5-6-8-|

Verso
G|------------------------|x4
D|------------------------|
A|-55-2\5/2--5------------|
E|------------33-44-55-66-|

Verso 2 ('Vamos Ya!...')
G|-------------------------------------------------|
D|--------------44-55-----44-55--------------44-55-|
A|-(8)-(7)-55-77-----55-77------(8)-(7)-55-77------|
E|-------------------------------------------------|

Verso 3 ('Si ya no Miro...')
G|-------------|
D|-------------|
A|-----(8)-----|
E|-(8)-----(8)-|

Parte Hablada
G|------------------------|x4
D|------------------------|
A|-55-2\5/2--5------------|
E|------------33-44-55-66-|

Coro
G|------------------------------------------|x2
D|------44-55-----44-55---------------------|
A|-55-77-----55-77----------22-33-----22-33-|
E|---------------------33-55-----33-55------|

Solo de Guitarra
G|---77-55-----77-55-----------------------|----------77--55-6h7--------------------|
D|-00-----77-00-----77---55-33-----55-33---|-----------------------------55--33-4h5-|
A|----------------------------55--------55-|-/5-5~~--5--55--------------------------|
E|---------------------33--------33--------|--------------------/3-3~~--3--33-------|
 |           DOS        Veces              |          DOS          Veces            |

Verso 2 ('Vamos Ya!...')
G|-------------------------------------------------|
D|--------------44-55-----44-55--------------44-55-|
A|-(8)-(7)-55-77-----55-77------(8)-(7)-55-77------|
E|-------------------------------------------------|

Final
G|-----------------|
D|-----------------|
A|-----(8)-----(8)-|
E|-(8)-----(8)-----|

Escuchá la canción para saber el ritmo
Suggest correction
Give kudos to tab author, rate the tab!
1 2 3 4 5
comments
print report bad tab
guest
You may want to rate the tab now too:
select rating
Wanna post a correction for this tab? Suggest correction