Oops, an error
Loading. Please wait.

Despiole Generacional Chords

by Turf
15 views 1 this week
no commentswrite comment
1 2 3 4 5
3 more votes to show rating
add to favorites
×
Save as Personal and add changes to this tab that will be seen only by you. Learn more ›
×
You can save this tab as Personal to edit and correct it or add notes. All changes will be seen only by you. Learn more »
save as personal
new!
launch autoscroll
font size
0
reset
transpose
0
reset
display chords
guitar tuner
Autoscroll
slow
fast
+/-
esc
set tempo
stop
Strumming
There is no strumming pattern for this song yet. and get +5 IQ
Formación de acordes: 

.......E.....A......C*.....B......G*....C.....G....D.....F#...... 
e:-----0-------5-------3-------7-------3-------0------3------2------2------| 
B:-----0-------5-------5-------7-------3-------1------3------3------2------| 
G:-----0-------6-------5-------8-------4-------0------0------2------3------| 
D:-----2-------7-------5-------9-------5-------2------0------0------4------| 
A:-----2-------7-------3-------9-------5-------3------2------0------4------| 
E:-----0-------5-------3-------7-------3-------0------3------0------2------| 


--------------------------------------------------------------------------------
Intro 
e:-------------|-------------------|-----------------0-|------------------| 
B:-------------|-------------2-0---|-------------2-3---|------------2-0---| 
G:------0(2)-0-|------0(2)-0-----2-|------0(2)-0-------|------0(2)-0----2-| 
D:--0(2)-------|--0(2)-------------|--0(2)-------------|--0(2)------------| 
A:-------------|-------------------|-------------------|------------------| 
E:-------------|-------------------|-------------------|------------------| 


--------------------------------------------------------------------------------

...E................ 
El ritmo se acelera.. 
...A............... 
entramos en acción.. 
...E................ 
la música golpea y.. 
...A................C*.. 
todo se sacude alrededor.. 

...........B........ 
Me empiezo a agitar.. 
A.........G*......A... 
deslizar y sube el calor.. 
B...........A...G* 
si ella está lista.... 
........A..........E........ 
estamos listos para comenzar.. 

...A........E....A...E 
Marquemos el nuevo rumbo.. 
..C.......G...D........E 
Tomemos la nueva dirección... 
..A..........E....A...E 
Entremos a un nuevo Mundo.. 
...C........G...D.......E..A..E..LA 
busquemos la nueva sensación.. 

...E................ 
Nos vamos acercando.. 
..A................. 
Estamos por entrar... 
...E......................... 
El cuarto es espejado y todo.. 
......A........C*.. 
se remite sin parar.. 

...........B........ 
Me empiezo a agitar.. 
A.........G*......A... 
deslizar y sube el calor.. 
B...........A...G* 
si ella está lista.... 
........A..........E........ 
estamos listos para comenzar... 

...A........E....A...E 
Marquemos el nuevo rumbo.. 
..C.......G...D........E 
Tomemos la nueva dirección... 
..A..........E....A...E 
Entremos a un nuevo Mundo.. 
...C........G...D....... 
busquemos la nueva sensación.. 

..C...........................A#.... 
Y nunca nada va a volver a ser igual.. 
...........E........ 
hasta el encuentro... 
...........A........ 
hasta el encuentro... 
...........E........ 
hasta el encuentro... 

G*...........D.......... 
uh,...no puede ser feliz... 
..........C............. 
con tanta gente hablando, 
..G...............A... 
hablando a su alrededor.. 

G*...........D......... 
uh,...dame tu amor a mi... 
..........C...... 
le estoy hablando, 
............G.............E... 
hablando, hablando a tu corazón.. 
----------------------mi........ 
Y estamos listos para comenzar.. 

...A........E....A...E 
Marquemos el nuevo rumbo.. 
..C.......G...D........E 
Tomemos la nueva dirección... 
..A..........E....A...E 
Entremos a un nuevo Mundo.. 
...C........G...D....... 
busquemos la nueva sensación.. 

...A........E....A...E 
Marquemos el nuevo rumbo.. 
..C.......G...D........E 
Tomemos la nueva dirección... 
..A..........E....A...E 
Entremos a un nuevo Mundo.. 
...C........G...D....... 
busquemos la nueva sensación.. 
..C...........................A#...... 
Y nunca nada va a volver a ser igual.... 
...........E........ 
hasta el encuentro... 
...........A........ 
hasta el encuentro... 
...........E........ 
hasta el encuentro... 
...........A........ 
hasta el encuentro... 

...........E........ 
...........A........ 
...........E........ 
...........A........ 
B....A....G*...F# 
B....A....G*...F#FA#....E.....
Suggest correction
Give kudos to tab author, rate the tab!
1 2 3 4 5
comments
print report bad tab
guest
Wanna post a correction for this tab? Suggest correction