Oops, an error
Loading. Please wait.

Despiole Generacional Tab

by Turf
28 views 3 this week
no commentswrite comment
1 2 3 4 5
3 more votes to show rating
add to favorites
×
Save as Personal and add changes to this tab that will be seen only by you. Learn more ›
×
You can save this tab as Personal to edit and correct it or add notes. All changes will be seen only by you. Learn more »
save as personal
new!
launch autoscroll
font size
0
reset
how to read this tab
guitar tuner
Autoscroll
slow
fast
+/-
esc
set tempo
stop
Riff1 x2 (Intro)
Riff2 x4

   E5(1)
El ritmo se acelera
   A
entramos en acción
   E5(1)
la música golpea y
           A          C5
todo se sacude alrededor

           B5*
Me empiezo a agitar
A5*         G5*      F#5*
deslizar y sube el calor
B5*          A5*  G5*
si ella está lista
        F#5*        E5
estamos listos para comenzar

   A5        E5    A5    E5
Marquemos el nuevo rumbo
  C5       G5    D5       E5
Tomemos la nueva dirección
  A5       E5    A5   E5
Entremos a un nuevo Mundo
   C5        G5    B5
busquemos la nueva sensación

Nos vamos acercando
Estamos por entrar
El cuarto es espejado y todo
se remite sin parar

Me empiezo a agitar
deslizar y sube el calor
si ella está lista
estamos listos para comenzar

Marquemos el nuevo rumbo
Tomemos la nueva dirección
Entremos a un nuevo Mundo
busquemos la nueva sensación

  C5                           A#1
Y nunca nada va a volver a ser igual
Riff2
hasta el encuentro
hasta el encuentro
hasta el encuentro

G5              D5
uh,...no puede ser feliz
           C5
con tanta gente hablando,
  G5              A5       D5
hablando a tu alrededor

G5             D5
uh,...dame tu amor a mi
          C5
le estoy hablando,
           G5              D5
hablando, hablando a tu corazón

B5
Y estamos listos para comenzar

Marquemos el nuevo rumbo
Tomemos la nueva dirección
Entremos a un nuevo Mundo
busquemos la nueva sensación

Marquemos el nuevo rumbo
Tomemos la nueva dirección
Entremos a un nuevo Mundo
busquemos la nueva sensación

Y nunca nada va a volver a ser igual
Riff1
hasta el encuentro
hasta el encuentro
hasta el encuentro
Riff2
hasta el encuentro

Riff3 (Solo)

B5* A5* G5* F#5*
B5* A5* G5* F5
E5


Riff1
e|----------|
B|----------|
G|----------|
D|------7-5-|
A|--5h7-----|
E|----------|

Riff2
e|---------------------|
B|------------------5--|
G|----------6-6-6-7----|
D|------7-5------------|
A|--5h7----------------|
E|---------------------|

Acordes
e|------------------------------|---------5------------------------------|
B|------0------0------0------0--|--5------5------------------------------|
G|------------------------------|--4------6------------------------------|
D|----9------7------5------4----|--2------7---5-------4---7-------9------|
A|--9------7------5------4------|---------7---3---5---2---5---7---7---4--|
E|--7------5------3------2------|---------5-------3-----------5-------2--|
    B5*    A5*    G5*    F#5*      E5(1)  A   C5  G5  B5  D5  A5  E5  F#5

Riff3
e|-------10-10-10-10-9--7--------------------------10-10-10-10-9--7-----------------------------------------|
B|--8>12-12-12-12-12-10-8-------8-10-12...-8-------12-12-12-12-10-8------8-10-12-----8-10-12-----8-10-12...-|
G|-------------------------9h12--------------9-7-9-------------------7-9---------7-9---------7-9------------|
D|----------------------------------------------------------------------------------------------------------|
A|----------------------------------------------------------------------------------------------------------|
E|----------------------------------------------------------------------------------------------------------|
Suggest correction
Give kudos to tab author, rate the tab!
1 2 3 4 5
comments
print report bad tab
guest
Wanna post a correction for this tab? Suggest correction