Oops, an error
Loading. Please wait.

Dia Especial (22) Bass

by Turf
7 views 1 this week
no commentswrite comment
1 2 3 4 5
3 more votes to show rating
add to favorites
launch autoscroll
font size
0
reset
guitar tuner
×
Best way to learn
"Dia Especial (22)"
Autoscroll
slow
fast
+/-
esc
set tempo
stop
Intro
G|---------------------------------------------|x4
D|---------------------------------------------|
A|---------------------------------------------|
E|-3-3--3-0-0-3-3--3-0-0-3-3--3-0-0-3-3--3-0-0-|

Versos
G|---------------------------------------------|-----------------|---------------|x2 (todo)
D|---------------------------------------------|-----------------|---------------|
A|---------------------------------------------|-----------------|-------3-3-3---|
E|-3-3--3-0-0-3-3--3-0-0-3-3--3-0-0-3-3--3-0-0-|-3-3--3-0-0-3-/5-|-1-1-1-------3-|

Coros
G|----------------------------------------------------------------|x3
D|---------------------3-------3-------5-3--3-4-5-5-5--5-3--3-4-5-|
A|-----------------------3-------3--------------------------------|
E|-5-5/17--5-5/17--1-1-----1-1-------3----------------------------|

 |-----------------------------5---|
 |---------------------3-----------|
 |-------------------------3-3-----|
 |-5-5/17--5-5/17--1-1---1-------3-|

Final 1 ('y ver el show...')
G|------------------|
D|------------------| **hasta el final**
A|------------------|
E|-3h4p5-5--3h4p5-3-|
Suggest correction
Give kudos to tab author, rate the tab!
1 2 3 4 5
comments
print report bad tab
guest
You may want to rate the tab now too:
select rating
Wanna post a correction for this tab? Suggest correction