Oops, an error
Loading. Please wait.

El Espectador Chords

by Turf
19 views 1 this week
no commentswrite comment
1 2 3 4 5
3 more votes to show rating
add to favorites
×
Save as Personal and add changes to this tab that will be seen only by you. Learn more ›
×
You can save this tab as Personal to edit and correct it or add notes. All changes will be seen only by you. Learn more »
save as personal
new!
launch autoscroll
font size
0
reset
transpose
0
reset
display chords
guitar tuner
Autoscroll
slow
fast
+/-
esc
set tempo
stop
Strumming
There is no strumming pattern for this song yet. and get +5 IQ
INTRO
RIFF 1
1------------------------------
2------------------------------
3------------------------------
4-----------------0 2 0---0 2 0
5 0 2 2 0 2 2 0 2-------2------
6------------------------------


Bm
Cuando rebota la carne con la cama.

A veces pienso que ella es paranormal.

Es una loca con aires de Madama.

Que cada tanto te vuele, a conquistar.

E
No quiero ser un espía,

No quiero ser sólo un puto espectador.

Bm
Cuando se pasa de noche a la mañana.

A veces pienso que no va a regresar.

Es el recuerdo de las cosas postergadas.

Que cada tanto te pasan a buscar.

E
No quiero ser un espía,

No quiero ser sólo un puto espectador.

riff 2
Dos veces
1--------------------------------------
2--------------------------------------
3-------------------------0 4-------0 4
4-----0 4-------0 4---2 4-----2 2 4----
5 2 4-----2 2 4------------------------
6--------------------------------------

riff 3
Dos veces
1-----------------
2-----------------
3---2---0---------
4-----------4---2-
5-0---0---0---0---
6-----------------


D                        G
Por una noche, no me hizo falta.
D                        G
Porque el hechizo no se me va.
D                      G
Voy caminando y suenan alarmas,
D                     Bm-E       Bm-E
pero el impulso me sigue...   Me sigue.

Bm
Cuando rebota....


riff 2 y 3


D                        G
Por una noche, no me hizo falta.
D                        G
Porque el hechizo no se me va.
D                      G
Voy caminando y suenan alarmas,
D                        G
pero el impulso me sigue igual
D                        G
lala lalalala lala lalala lala.....


Tema preferido de Carlitos de este album. Para vos man!!
chino_academia@
Suggest correction
Give kudos to tab author, rate the tab!
1 2 3 4 5
comments
print report bad tab
guest
Wanna post a correction for this tab? Suggest correction