Oops, an error
Loading. Please wait.

Me Hace Sentir Bass Tab

by Turf
13 views 1 this week
no commentswrite comment
1 2 3 4 5
3 more votes to show rating
add to favorites
launch autoscroll
font size
0
reset
guitar tuner
Autoscroll
slow
fast
+/-
esc
set tempo
stop
Help us to improve Ultimate-Guitar.com Take our survey!
×
Versos
G|---------------|---------------------|-----------------|
D|---5-3h5---3-5-|---------5-3h5---3-5-|-----------------|
A|---------5-----|-1--3----------5-----|-1--3--3-5-5-3h5-|
E|-3-------------|-------3-------------|-----------------|
 | OCHO    VECES |

Coros
G|-------------------5-3h5---3-5-|
D|---5-3h5---3-5-----------5-----|
A|---------5-------3-------------|
E|-3-----------------------------|
 |       DOS          VECES      |


G|-----------------------------------------------------------------|
D|-----------------------------------------------------------------|
A|-----------------------------5-/5-5-3-5-5-5--5/17-17-17-17-17-17-|
E|-/6-6-4-6-6-6-5-/5-5-3-5-5-5-------------------------------------|
Suggest correction
Give kudos to tab author, rate the tab!
1 2 3 4 5
comments
print report bad tab
guest
You may want to rate the tab now too:
select rating
Wanna post a correction for this tab? Suggest correction