Oops, an error
Loading. Please wait.

Viajando En Jet (Set) Bass

by Turf
16 views 1 this week
no commentswrite comment
1 2 3 4 5
3 more votes to show rating
add to favorites
launch autoscroll
font size
0
reset
guitar tuner
×
Best way to learn
"Viajando En Jet (set)"
Autoscroll
slow
fast
+/-
esc
set tempo
stop
Versos
G|---------------------------------|x2
D|---------------------------------|
A|-2--2-4------------2--2-4--------|
E|---------3--3-2--2---------3-3-2-|

Coros
G|--------------------------------4-2-----|---------------------|---------|
D|------------------------------------4-2-|---------------4-2---|---------|
A|----------2--2-5\2----------1-2---------|------5-3-2--2-------|---------|
E|-3--3-5-6----------4-3--2-4-------------|-3--3--------------2-|-2222222-|

Verso 2 ('Yo ya estuve ahi...')
G|---------------------------------------------------------------------|x2
D|------4-------------------7------------------------------------------|
A|-2--2---2-------5----5--5---5----------------------------------------|
E|-----------3--3---3------------2-3-4-5-3--3-3-2-1--0-0-1-2---3-2-1-0-|

Solo de Guitarra
G|---------------------------------|
D|---------------------------------|
A|-2--2-4------------2--2-4--------|
E|---------3--3-2--2---------3-3-2-|

Final ('En cualquier parte...')
G|--------------|-----------------|
D|--------------|-----------------| **hasta el final**
A|-----------2--|-----------------|
E|-3-33333-5----|-3-33333-3-2-1-0-|
 | TRES   VECES |
Suggest correction
Give kudos to tab author, rate the tab!
1 2 3 4 5
comments
print report bad tab
guest
You may want to rate the tab now too:
select rating
Wanna post a correction for this tab? Suggest correction