Oops, an error
Loading. Please wait.

Cutting My Fingers Off tab

version 2
version 2

Whole song

2,545 views 24 this week
no commentswrite comment
1 2 3 4 5
1 last vote to show rating
add to favorites
×
Save as Personal and add changes to this tab that will be seen only by you. Learn more ›
×
You can save this tab as Personal to edit and correct it or add notes. All changes will be seen only by you. Learn more »
launch autoscroll
font size
0
reset
how to read this tab
guitar tuner
edit
Autoscroll
slow
fast
+/-
esc
set tempo
stop
-------------------------------------------------------------------------------
                       CUTTING MY FINGERS OFF - Turnover
-------------------------------------------------------------------------------
Tabbed by: Mike Wolfe
E-mail: mikewolfe182@gmail.com

Tuning: Standard (EADGBe) w/ a capo on the 5th fret

Guitar 1:

e|---------------------------------|
B|---------------------------------|
G|---------0---------0---------0---|
D|-----0---------0---------0-------|
A|-3-3---3---3-3---3---3-3---3--3--|
E|---------------------------------|

That repeats until the verse ends
                                            played on the 4th time
e|-----------------------------------|-----------------------------------|
B|-3333333333333333-3333333333333333-|-3333333333333333-3333333333333333-|
G|-0000000000000000-0000000000000000-|-0000000000000000-0000000000000000-|
D|-0000000000000000-0000000000000000-|-0000000000000000-0000000000000000-|
A|-3333333333333333-2222222200000000-|-2222222222222222-0000000000000000-|
E|-----------------------------------|-0000000033333333------------------|
     
                 x2                                    x2
e|------------------------------------|---------------------------------|
B|-3-3-33333-3-33333-3-3-3333-3-33333-|-3-3-3-3-3-3-3-3-3-3-3-3-3-3-3-3-|
G|-0-0-00000-0-00000-0-0-0000-0-00000-|-0-0-0-0-0-0-0-0-0-0-0-0-0-0-0-0-|
D|-0-0-00000-0-00000-0-0-0000-0-00000-|-0-0-0-0-0-0-0-0-0-0-0-0-0-0-0-0-|
A|-3-3-33333-3-33333-2-2-2220-0-00000-|-3-3-3-3-3-3-3-3-2-2-2-2-0-0-0-0-|
E|------------------------------------|---------------------------------|

                 x6                                 x2
e|----------------------------------|---------------------------------|
B|-33333333333333333333333333333333-|---------------------------------|
G|-00000000000000000000000000000000-|---------0---------0---------0---|
D|-00000000000000000000000000000000-|-----0---------0---------0-------|
A|-33333333333333332222222200000000-|-3-3---3---3-3---3---3-3---3--3--|
E|----------------------------------|---------------------------------|

Guitar 2:

              x2                            
e|---------------------------|
B|---------------------------|
G|---------------------------|
D|---------0-----------------|
A|-0-----------2---0---------|
E|-----0---------------0---3-|

e|---------------7--------------|---------------7-----------|
B|----8---10p8-----8---10p8---8-|----8---10p8-----8-------8-|
G|-77---7------7-----7------7---|-77---7------7-----7-7h9---|
D|------------------------------|---------------------------| Whole thing played twice
A|------------------------------|---------------------------|
E|------------------------------|---------------------------|

Guitar 2 cuts out for the verse

e|---------------7--------------|---------------7-----------|
B|----8---10p8-----8---10p8---8-|----8---10p8-----8-------8-|
G|-77---7------7-----7------7---|-77---7------7-----7-7h9---|
D|------------------------------|---------------------------| Whole thing played twice
A|------------------------------|---------------------------|
E|------------------------------|---------------------------|

Guitar 1 only and then...

e|-------------------------0000-----------------------------------------------------------------------|
B|-333333333333333333333333----33330000000000000000--------11110000------------------------33330000---|
G|-------------------------------------------------22222222--------000000000000000022222222--------0~-|
D|----------------------------------------------------------------------------------------------------|
A|----------------------------------------------------------------------------------------------------|
E|----------------------------------------------------------------------------------------------------|

Only guitar 1 again and then...

e|---------------7--------------|---------------7-----------|
B|----8---10p8-----8---10p8---8-|----8---10p8-----8-------8-|
G|-77---7------7-----7------7---|-77---7------7-----7-7h9---|
D|------------------------------|---------------------------| Whole thing played twice
A|------------------------------|---------------------------|
E|------------------------------|---------------------------|

e|------------------------------------------------------------------|
B|-8888888888888888-10-10-10-10-10-10-10-10-10-10-10-10-10-10-10-10-|
G|------------------------------------------------------------------|
D|------------------------------------------------------------------| Whole thing played twice
A|------------------------------------------------------------------|
E|------------------------------------------------------------------|

                    x2
e|--------10tr--7tr---------------7tr-|-10tr----12tr--10tr--7tr--------|--------10tr--7tr---------------7tr-|
B|-8tr---------------10tr----8tr------|---------------------------10tr-|-8tr---------------10tr----8tr------|
G|------------------------------------|--------------------------------|------------------------------------|
D|------------------------------------|--------------------------------|------------------------------------|
A|------------------------------------|--------------------------------|------------------------------------|
E|------------------------------------|--------------------------------|------------------------------------|


************************************

| /   slide up
| \   slide down
| h   hammer-on
| p   pull-off
| ~   vibrato
| +   harmonic
| x   Mute note
| b   Bend
| pb  Pre-bend
| br  Bend release
| pbr Pre-bend release
| brb Bend release bend
| tr  tremolo picking

************************************
Suggest correction
Creating personal tab
Creating personal tab
You can edit any tab online and save it as your Personal.

You can edit, replace or remove any tab part or add personal notes – all changes will be seen only by you.

Personal tabs can be accessed anytime from any device, even offline.
Learn more »
Give kudos to tab author, rate the tab!
1 2 3 4 5
comments
print report bad tab
guest
You may want to rate the tab now too:
select rating
Wanna post a correction for this tab? Suggest correction