Oops, an error
Loading. Please wait.

Hello Euphoria tab

9,507 views 93 this week
2 commentsread comments
1 2 3 4 5
x 7
add to favorites
×
Save as Personal and add changes to this tab that will be seen only by you. Learn more ›
×
You can save this tab as Personal to edit and correct it or add notes. All changes will be seen only by you. Learn more »
launch autoscroll
font size
0
reset
how to read this tab
guitar tuner
edit
Autoscroll
slow
fast
+/-
esc
set tempo
stop
----------------------------------------------------------------------------------------------------
                                  Turnover - Hello Euphoria      
----------------------------------------------------------------------------------------------------

Band: Turnover
Song: Hello Euphoria
Album: Peripheral Vision
Track: 4

Tabbed by: AsILayDying504
Email: mdl4208@aol.com

Tuning: Standard E (EADGBE)



CAPO ON FRET 4

**** This tab is in reference to the capo... 0 = FRET 4 ****

>> This is how they play it live.



[0:00 - 0:32]

E|-----------------------------------------------------------|
B|--5-5--5-5-5--5-5-5--5-5-5--5-5-5--5-5-5--5-5-5--5-5-5--5--|  
G|--5-5--5-5-5--5-5-5--5-5-5--5-5-5--5-5-5--5-5-5--5-5-5--5--|
D|--0-0--0-0-0--0-0-0--0-0-0--3-3-3--2-2-2--0-0-0--2-2-2--2--|
A|--5-5--5-5-5--0-0-0--0-0-0--3-3-3--3-3-3--3-3-3--3-3-3--3--|
E|-----------------------------------------------------------|(x4)


[0:32 - 0:47]

GUITAR 1
E|-------------------------------------------------------------------|
B|--5-5-5-5-5-5-5-5-5-5-5-5-5-5-5-5-5-5-5-5-5-5-5-5-5-5-5-5-5-5-5-5--|  
G|--5-5-5-5-5-5-5-5-5-5-5-5-5-5-5-5-5-5-5-5-5-5-5-5-5-5-5-5-5-5-5-5--|
D|--0-0-0-0-0-0-0-0-0-0-0-0-0-0-0-0-x-x-x-x-x-x-x-0-0-0-0-2-2-2-2-2--|
A|--5-5-5-5-5-5-5-5-0-0-0-0-0-0-0-0-3-3-3-3-3-3-3-3-3-3-3-3-3-3-3-3--|
E|-------------------------------------------------------------------|(x2)

GUITAR 2
E|------10-------10-------8-------8--------8------8----------8-------8----|
B|----8----8---8----8---8---8---8---8---10---10-------10-8-----8---8---8--| 
G|--9--------9--------9-------9-------9---------9---9------9-----9--------|
D|------------------------------------------------------------------------|
A|------------------------------------------------------------------------|
E|------------------------------------------------------------------------|(x2)


[0:47 - 1:17]

GUITAR 1
E|-----------------------------------------------------------|
B|--5-5--5-5-5--5-5-5--5-5-5--5-5-5--5-5-5--5-5-5--5-5-5--5--|  
G|--5-5--5-5-5--5-5-5--5-5-5--5-5-5--5-5-5--5-5-5--5-5-5--5--|
D|--0-0--0-0-0--0-0-0--0-0-0--3-3-3--2-2-2--0-0-0--2-2-2--2--|
A|--5-5--5-5-5--0-0-0--0-0-0--3-3-3--3-3-3--3-3-3--3-3-3--3--|
E|-----------------------------------------------------------|(x4)

GUITAR 2 (Comes in at 1:02)
E|-------5----3---------0----0--|
B|-----------------3--3----3----|
G|--5--5----5----5--------------|
D|------------------------------|
A|------------------------------|
E|------------------------------|(x4)


[1:17 - 1:32]

GUITAR 1
E|---------------------------------------------------------|
B|--5~----5~-----5~----5~--5~--5~----5~----5~----5-5--5-5--|
G|--5~----5~-----5~----5~--5~--5~----5~----5~----5-5--5-5--|
D|--0~----0~-----x-----0~--2~--0~----0~----x-----2-2--2-2--|
A|--5~----0~-----3~----3~--3~--5~----0~----3~----3-3--3-3--|
E|---------------------------------------------------------|

GUITAR 2
E|--10~-----8~--------------------10~-----8~----------------------|
B|-----------------10~-----8~--------------------10~-----8~-------|
G|----------------------------------------------------------------|
D|----------------------------------------------------------------|
A|----------------------------------------------------------------|
E|----------------------------------------------------------------|


[1:32 - 1:47]

GUITAR 1
E|-------------------------------------------------------------------|
B|--5-5-5-5-5-5-5-5-5-5-5-5-5-5-5-5-5-5-5-5-5-5-5-5-5-5-5-5-5-5-5-5--| 
G|--5-5-5-5-5-5-5-5-5-5-5-5-5-5-5-5-5-5-5-5-5-5-5-5-5-5-5-5-5-5-5-5--|
D|--0-0-0-0-0-0-0-0-0-0-0-0-0-0-0-0-x-x-x-x-x-x-x-0-0-0-0-2-2-2-2-2--|
A|--5-5-5-5-5-5-5-5-0-0-0-0-0-0-0-0-3-3-3-3-3-3-3-3-3-3-3-3-3-3-3-3--|
E|-------------------------------------------------------------------|(x2)


GUITAR 2
E|------10-------10-------8-------8--------8------8----------8-------8----|
B|----8----8---8----8---8---8---8---8---10---10-------10-8-----8---8---8--|
G|--9--------9--------9-------9-------9---------9---9------9-----9--------|
D|------------------------------------------------------------------------|
A|------------------------------------------------------------------------|
E|------------------------------------------------------------------------|(x2)


[1:47 - 2:18]

GUITAR 1
E|-----------------------------------------------------------|
B|--5-5--5-5-5--5-5-5--5-5-5--5-5-5--5-5-5--5-5-5--5-5-5--5--|  
G|--5-5--5-5-5--5-5-5--5-5-5--5-5-5--5-5-5--5-5-5--5-5-5--5--|
D|--0-0--0-0-0--0-0-0--0-0-0--3-3-3--2-2-2--0-0-0--2-2-2--2--|
A|--5-5--5-5-5--0-0-0--0-0-0--3-3-3--3-3-3--3-3-3--3-3-3--3--|
E|-----------------------------------------------------------|(x4)


GUITAR 2 (Comes in at 2:02)
E|-------5----3---------0----0--|
B|-----------------3--3----3----| 
G|--5--5----5----5--------------|
D|------------------------------|
A|------------------------------|
E|------------------------------|(x4)


[2:18 - 2:50]

GUITAR 1
E|-------------------------------------------------------------------|
B|--5-5-5-5-5-5-5-5-5-5-5-5-5-5-5-5-5-5-5-5-5-5-5-5-5-5-5-5-5-5-5-5--|
G|--5-5-5-5-5-5-5-5-5-5-5-5-5-5-5-5-5-5-5-5-5-5-5-5-5-5-5-5-5-5-5-5--|
D|--0-0-0-0-0-0-0-0-0-0-0-0-0-0-0-0-x-x-x-x-x-x-x-0-0-0-0-2-2-2-2-2--|
A|--5-5-5-5-5-5-5-5-0-0-0-0-0-0-0-0-3-3-3-3-3-3-3-3-3-3-3-3-3-3-3-3--|
E|-------------------------------------------------------------------|(x4)
 |
 |
E|------|
B|--5~--|
G|--5~--|
D|--2~--|
A|--3~--|
E|------|


GUITAR 2
E|------10-------10-------8-------8--------8------8----------8-------8----|
B|----8----8---8----8---8---8---8---8---10---10-------10-8-----8---8---8--| 
G|--9--------9--------9-------9-------9---------9---9------9-----9--------|
D|------------------------------------------------------------------------|
A|------------------------------------------------------------------------|
E|------------------------------------------------------------------------|(x4)
 |
 |
E|------|
B|--8~--|
G|------|
D|------|
A|------|
E|------|


[2:50 - 3:20]

GUITAR 1
E|--0-0-0-0-0-0-0-0-0-0-0-0-0-0-0-0-0-0-0-0-0-0-0-0-0-0-0-0-0-0-0-0--|
B|--1-1-1-1-1-1-1-1-1-1-1-1-1-1-1-1-1-1-1-1-1-1-1-1-1-1-1-1-1-1-1-1--|  
G|--0-0-0-0-0-0-0-0-0-0-0-0-0-0-0-0-0-0-0-0-0-0-0-0-0-0-0-0-0-0-0-0--|
D|--2-2-2-2-2-2-2-2-2-2-2-2-2-2-2-2-0-0-0-0-0-0-0-0-0-0-0-0-0-0-0-0--|
A|--0-0-0-0-0-0-0-0-3-3-3-3-3-3-3-3-2-2-2-2-2-2-2-2-2-2-2-2-2-2-2-2--|
E|----------------------------------3-3-3-3-3-3-3-3-3-3-3-3-3-3-3-3--|(x4)


GUITAR 2 (Comes in at 3:05)
E|--------5-5-5-3-3-3-------0-0-0-0--|
B|--------------------3-3-3----------|  
G|--5-5-5----------------------------|
D|-----------------------------------|
A|-----------------------------------|
E|-----------------------------------|(x4)


[3:20 - 3:35]

GUITAR 1
E|--0-0-0-0-0-0-0-0-0-0-0-0-0-0-0-0-0-0-0-0-0-0-0-0-0-0-0-0-0-0-0-0--|
B|--1-1-1-1-1-1-1-1-1-1-1-1-1-1-1-1-1-1-1-1-1-1-1-1-1-1-1-1-1-1-1-1--| 
G|--0-0-0-0-0-0-0-0-0-0-0-0-0-0-0-0-0-0-0-0-0-0-0-0-0-0-0-0-0-0-0-0--|
D|--2-2-2-2-2-2-2-2-2-2-2-2-2-2-2-2-0-0-0-0-0-0-0-0-0-0-0-0-0-0-0-0--|
A|--0-0-0-0-0-0-0-0-3-3-3-3-3-3-3-3-2-2-2-2-2-2-2-2-2-2-2-2-2-2-2-2--|
E|----------------------------------3-3-3-3-3-3-3-3-3-3-3-3-3-3-3-3--|(x2)
 | 
 |
E|--0~--|
B|--1~--|
G|--0~--|
D|--2~--|
A|--0~--|
E|------|

GUITAR 2
E|------10-------10-------8-------8--------8------8----------8-------8----|
B|----8----8---8----8---8---8---8---8---10---10-------10-8-----8---8---8--|
G|--9--------9--------9-------9-------9---------9---9------9-----9--------|
D|------------------------------------------------------------------------|
A|------------------------------------------------------------------------|
E|------------------------------------------------------------------------|(x2)
 |
 |
E|--8~--|
B|--8~--|
G|--9~--|
D|------|
A|------|
E|------|


[3:35 - 3:48]

E|----------------------------|
B|--5-5--5-5-5--5-5-5--5-5-5--|
G|--5-5--5-5-5--5-5-5--5-5-5--|
D|--0-0--0-0-0--0-0-0--0-0-0--|
A|--5-5--5-5-5--0-0-0--0-0-0--|
E|----------------------------|



****************************

|  ~    held note
|  x    mute note

****************************
Suggest correction
Creating personal tab
Creating personal tab
You can edit any tab online and save it as your Personal.

You can edit, replace or remove any tab part or add personal notes – all changes will be seen only by you.

Personal tabs can be accessed anytime from any device, even offline.
Learn more »
comments
print report bad tab
2 comments total.
+1 reply
cvnourn4 127 Oct 17, 2015 11:24 AM

great tab!

guest
You may want to rate the tab now too:
select rating
Wanna post a correction for this tab? Suggest correction