Oops, an error
Loading. Please wait.

Humblest Pleasures tab

1,765 views 21 this week
no commentswrite comment
1 2 3 4 5
x 3
add to favorites
×
Save as Personal and add changes to this tab that will be seen only by you. Learn more ›
×
You can save this tab as Personal to edit and correct it or add notes. All changes will be seen only by you. Learn more »
launch autoscroll
font size
0
reset
how to read this tab
guitar tuner
edit
Autoscroll
slow
fast
+/-
esc
set tempo
stop
Author
Difficulty
---------------------------------------------------------------------------------------------------
                               Turnover - Humblest Pleasures      
---------------------------------------------------------------------------------------------------

Band: Turnover
Song: Humblest Pleasures
Album: Humblest Pleasures
Track: 1

Tabbed by: AsILayDying504
Email: mdl4208@aol.com
Tuning: Standard E (EADGBE)


* CAPO ON 3RD FRET *    (As seen in live videos)

* This tab is IN REFERENCE to the CAPO, meaning CAPO (FRET 3) = FRET 0 IN TAB *


NOTE FROM TABBER:

Feel free to email me or message me on Ultimate-Guitar with any questions or requests. I love to help.



[0:00 - 0:42]


 |  Guitar 1
E|--9---9---9--9--9--9---9--9---9--9--9------------------------------------------|
B|--9---9---9--9--9--9---9--9---9--9--9----9---9---9--9--9--9---9--9---9--9--9---|
G|--9---9---9--9--9--9---9--9---9--9--9----9---9---9--9--9--9---9--9---9--9--9---|
D|--11--11--11-11-11-11--11-11--11-11-11---9---9---9--9--9--9---9--9---9--9--9---|
A|-----------------------------------------11--11--11-11-11-11--11-11--11-11-11--|
E|-------------------------------------------------------------------------------|
 |
E|--2--2--2-2-2-2--2-2--2-2-2---4--4--4-4-4-4--4-4--4-4-4--|
B|--2--2--2-2-2-2--2-2--2-2-2---5--5--5-5-5-5--5-5--5-5-5--|
G|--2--2--2-2-2-2--2-2--2-2-2---4--4--4-4-4-4--4-4--4-4-4--|
D|--4--4--4-4-4-4--4-4--4-4-4---6--6--6-6-6-6--6-6--6-6-6--|
A|---------------------------------------------------------|
E|---------------------------------------------------------|
 |
E|--9---9---9--9--9--9---9--9---9--9--9------------------------------------------|
B|--9---9---9--9--9--9---9--9---9--9--9----9---9---9--9--9--9---9--9---9--9--9---|
G|--9---9---9--9--9--9---9--9---9--9--9----9---9---9--9--9--9---9--9---9--9--9---|
D|--11--11--11-11-11-11--11-11--11-11-11---9---9---9--9--9--9---9--9---9--9--9---|
A|-----------------------------------------11--11--11-11-11-11--11-11--11-11-11--|
E|-------------------------------------------------------------------------------|
 |
E|--2--2--2-2-2-2--2-2--2-2-2---4--4--4-4-4-4--4-4--4-4-4--|
B|--2--2--2-2-2-2--2-2--2-2-2---5--5--5-5-5-5--5-5--5-5-5--|
G|--2--2--2-2-2-2--2-2--2-2-2---4--4--4-4-4-4--4-4--4-4-4--|
D|--4--4--4-4-4-4--4-4--4-4-4---6--6--6-6-6-6--6-6--6-6-6--|
A|---------------------------------------------------------|
E|---------------------------------------------------------|
 |
E|--9---9---9--9--9--9---9--9---9--9--9------------------------------------------|
B|--9---9---9--9--9--9---9--9---9--9--9----9---9---9--9--9--9---9--9---9--9--9---|
G|--9---9---9--9--9--9---9--9---9--9--9----9---9---9--9--9--9---9--9---9--9--9---|
D|--11--11--11-11-11-11--11-11--11-11-11---9---9---9--9--9--9---9--9---9--9--9---|
A|-----------------------------------------11--11--11-11-11-11--11-11--11-11-11--|
E|-------------------------------------------------------------------------------|
 |
E|--2--2--2-2-2-2--2-2--2-2-2---4--4--4-4-4-4--4-4--4-4-4--|
B|--2--2--2-2-2-2--2-2--2-2-2---5--5--5-5-5-5--5-5--5-5-5--|
G|--2--2--2-2-2-2--2-2--2-2-2---4--4--4-4-4-4--4-4--4-4-4--|
D|--4--4--4-4-4-4--4-4--4-4-4---6--6--6-6-6-6--6-6--6-6-6--|
A|---------------------------------------------------------|
E|---------------------------------------------------------|



 |  Guitar 2
E|-------0------------------------0-----------------0------------------------0-----------|
B|----------4------------------------4-----------------4----------------4-------4--------|
G|-------------4----6-6-6--6------------------------------4----6-6-6--6------------6--4--|
D|--6--6---------------------6--6-------6------6--6--------------------------------------|
A|---------------------------------------------------------------------------------------|
E|---------------------------------------------------------------------------------------|
 |
E|------------------------0~------0-0--------------------------|
B|------------------------0~----------2-2-0-0-2-2-----------0--|
G|------------------------2~----------------------1-1----------|
D|--6b~------6b~----4-----2~--------------------------4-4-4----|
A|----------------------0--------------------------------------|
E|-------------------------------------------------------------|
 |
E|------------------------0~------0-0------------------------------|
B|------------------------0~----------2-2-0-0-2-2------------------|
G|------------------------2~----------------------1-1--------------|
D|--6b~------6b~----4-----2~--------------------------4-4-4-2-2-2--|
A|----------------------0------------------------------------------|
E|-----------------------------------------------------------------|



[0:42 - 0:55]


 |  Guitar 1
E|--9~-----2----------9~-----2----------9~-----2----------9---9--9---2-----------------|
B|--9~-----2--5~------9~-----2--5~------9~-----2--5~------9---9--10--2--4--5-5--5-5-5--|
G|--9~-----2--4~------9~-----2--4~------9~-----2--4~------9---9--9---2--4--4-4--4-4-4--|
D|--11~----4--6~------11~----4--6~------11~----4--6~------11--11-11--4--6--6-6--6-6-6--|
A|-------------------------------------------------------------------------------------|
E|-------------------------------------------------------------------------------------|



 |  Guitar 2
E|-----------------------------------------------------------------------|
B|-----2----2------------2----2------------2----2------------2----2------|
G|---4----4-----4------4----4-----4------4----4-----4------4----4-----4--|
D|-----------------------------------------------------------------------|
A|-----------------------------------------------------------------------|
E|-----------------------------------------------------------------------|



[0:55 - 1:34]


|  Guitar 1
E|--9---9---9--9--9--9---9--9---9--9--9------------------------------------------|
B|--9---9---9--9--9--9---9--9---9--9--9----9---9---9--9--9--9---9--9---9--9--9---|
G|--9---9---9--9--9--9---9--9---9--9--9----9---9---9--9--9--9---9--9---9--9--9---|
D|--11--11--11-11-11-11--11-11--11-11-11---9---9---9--9--9--9---9--9---9--9--9---|
A|-----------------------------------------11--11--11-11-11-11--11-11--11-11-11--|
E|-------------------------------------------------------------------------------|
 |
E|--2--2--2-2-2-2--2-2--2-2-2---4--4--4-4-4-4--4-4--4-4-4--|
B|--2--2--2-2-2-2--2-2--2-2-2---5--5--5-5-5-5--5-5--5-5-5--|
G|--2--2--2-2-2-2--2-2--2-2-2---4--4--4-4-4-4--4-4--4-4-4--|
D|--4--4--4-4-4-4--4-4--4-4-4---6--6--6-6-6-6--6-6--6-6-6--|
A|---------------------------------------------------------|
E|---------------------------------------------------------|
 |
E|--9---9---9--9--9--9---9--9---9--9--9------------------------------------------|
B|--9---9---9--9--9--9---9--9---9--9--9----9---9---9--9--9--9---9--9---9--9--9---|
G|--9---9---9--9--9--9---9--9---9--9--9----9---9---9--9--9--9---9--9---9--9--9---|
D|--11--11--11-11-11-11--11-11--11-11-11---9---9---9--9--9--9---9--9---9--9--9---|
A|-----------------------------------------11--11--11-11-11-11--11-11--11-11-11--|
E|-------------------------------------------------------------------------------|
 |
E|--2--2--2-2-2-2--2-2--2-2-2---4--4--4-4-4-4--4-4--4-4-4--|
B|--2--2--2-2-2-2--2-2--2-2-2---5--5--5-5-5-5--5-5--5-5-5--|
G|--2--2--2-2-2-2--2-2--2-2-2---4--4--4-4-4-4--4-4--4-4-4--|
D|--4--4--4-4-4-4--4-4--4-4-4---6--6--6-6-6-6--6-6--6-6-6--|
A|---------------------------------------------------------|
E|---------------------------------------------------------|
 |
E|--9---9---9--9--9--9---9--9---9--9--9------------------------------------------|
B|--9---9---9--9--9--9---9--9---9--9--9----9---9---9--9--9--9---9--9---9--9--9---|
G|--9---9---9--9--9--9---9--9---9--9--9----9---9---9--9--9--9---9--9---9--9--9---|
D|--11--11--11-11-11-11--11-11--11-11-11---9---9---9--9--9--9---9--9---9--9--9---|
A|-----------------------------------------11--11--11-11-11-11--11-11--11-11-11--|
E|-------------------------------------------------------------------------------|
 |
E|--2--2--2-2-2-2--2-2--2-2-2---4--4--4-4-4-4--4-4--4-4-4--|
B|--2--2--2-2-2-2--2-2--2-2-2---5--5--5-5-5-5--5-5--5-5-5--|
G|--2--2--2-2-2-2--2-2--2-2-2---4--4--4-4-4-4--4-4--4-4-4--|
D|--4--4--4-4-4-4--4-4--4-4-4---6--6--6-6-6-6--6-6--6-6-6--|
A|---------------------------------------------------------|
E|---------------------------------------------------------|



 |  Guitar 2
E|-------0------------------------0-----------------0------------------------0-----------|
B|----------4------------------------4-----------------4----------------4-------4--------|
G|-------------4----6-6-6--6------------------------------4----6-6-6--6------------6--4--|
D|--6--6---------------------6--6-------6------6--6--------------------------------------|
A|---------------------------------------------------------------------------------------|
E|---------------------------------------------------------------------------------------|
 |
E|------------------------0~------0-0--------------------------|
B|------------------------0~----------2-2-0-0-2-2-----------0--|
G|------------------------2~----------------------1-1----------|
D|--6b~------6b~----4-----2~--------------------------4-4-4----|
A|----------------------0--------------------------------------|
E|-------------------------------------------------------------|
 |
E|------------------------0~------0-0------------------------------|
B|------------------------0~----------2-2-0-0-2-2------------------|
G|------------------------2~----------------------1-1--------------|
D|--6b~------6b~----4-----2~--------------------------4-4-4-2-2-2--|
A|----------------------0------------------------------------------|
E|-----------------------------------------------------------------|



[1:34 - 2:00]


 |  Guitar 1
E|--9~-----2----------9~-----2----------9~-----2----------9~-----2------|
B|--9~-----2--5~------9~-----2--5~------9~-----2--5~------9~-----2--5~--|
G|--9~-----2--4~------9~-----2--4~------9~-----2--4~------9~-----2--4~--|
D|--11~----4--6~------11~----4--6~------11~----4--6~------11~----4--6~--|
A|----------------------------------------------------------------------|
E|----------------------------------------------------------------------|
 |
E|--9~-----2----------9~-----2----------9~-----2----------9---9--9---2-----------------|
B|--9~-----2--5~------9~-----2--5~------9~-----2--5~------9---9--10--2--4--5-5--5-5-5--|
G|--9~-----2--4~------9~-----2--4~------9~-----2--4~------9---9--9---2--4--4-4--4-4-4--|
D|--11~----4--6~------11~----4--6~------11~----4--6~------11--11-11--4--6--6-6--6-6-6--|
A|-------------------------------------------------~-----------------------------------|
E|-------------------------------------------------------------------------------------|



 |  Guitar 2
E|-----------------------------------------------------------------------|
B|-----2----2------------2----2------------2----2------------2----2------|
G|---4----4-----4------4----4-----4------4----4-----4------4----4-----4--|
D|-----------------------------------------------------------------------|
A|-----------------------------------------------------------------------|
E|-----------------------------------------------------------------------|
 |
E|-----------------------------------------------------------------------|
B|-----2----2------------2----2------------2----2------------2----2------|
G|---4----4-----4------4----4-----4------4----4-----4------4----4-----4--|
D|-----------------------------------------------------------------------|
A|-----------------------------------------------------------------------|
E|-----------------------------------------------------------------------|



[2:00 - 2:46]


 |  Guitar 1
E|--4~----------4~----------4~--------------------------------------------------------|
B|--4~----------4~----------4~--------------------------------------------------------|
G|--6~----------6~----------6~-----11-11-11-11-11-11-11-11-11b-11b-11b-11b-11b-9-9-9--|
D|--6~----------6~----------6~--------------------------------------------------------|
A|------------------------------------------------------------------------------------|
E|------------------------------------------------------------------------------------|
 |                                .  .  .  .  .  .  .  . 
 |
E|---------------------------------------------------------------------------------------------|
B|---------------------------------------------------------------------------------------------|
G|---------------------------------------------------------------------------------------------|
D|--11-11-11-11-11-11-11-11-11-11-11---------9-9------------------------------------------9-9--|
A|-----------------------------------9-11-11------11-11-11-11-11-11-11-9-11-11-11-9-11-11------|
E|---------------------------------------------------------------------------------------------|
 |
E|---------------------------------------------------------------------------------------------|
B|---------------------------------------------------------------------------------------------|
G|---------------------------------------------------------------------------------------------|
D|--11-11-11-11-11-11-11-11-11-11-11---------9-9------------------------------------------9-9--|
A|-----------------------------------9-11-11------11-11-11-11-11-11-11-9-11-11-11-9-11-11------|
E|---------------------------------------------------------------------------------------------|
 |
E|---------------------------------------------------------------------------------------------|
B|---------------------------------------------------------------------------------------------|
G|---------------------------------------------------------------------------------------------|
D|--11-11-11-11-11-11-11-11-11-11-11---------9-9------------------------------------------9-9--|
A|-----------------------------------9-11-11------11-11-11-11-11-11-11-9-11-11-11-9-11-11------|
E|---------------------------------------------------------------------------------------------|
 |
E|-------------------------------------------------------------------------------------------|
B|-------------------------------------------------------------------------------------------|
G|-------------------------------------------------------------------------------------------|
D|--11-11-11-11-11-11-11-11-11-11-11---------9-9------------------------------------------9--|
A|-----------------------------------9-11-11------11-11-11-11-11-11-11-9-11-11-11-9-11-11----|
E|-------------------------------------------------------------------------------------------|



 |  Guitar 2
E|-------------------------------------|
B|-------------------------------------|
G|--6-8--9-8-----------6-8--9-8--------|
D|------------6--9---------------6--9--|
A|-------------------------------------|
E|-------------------------------------|
 |
E|------------------------------------------------------------------------------|
B|------------------------------------------------------------------------------|
G|--6-8--9-8-----------6-8--9-8-----------6-8--9-8-----------6-8--9-8-----------|
D|------------6--9---------------6--9---------------6--9---------------6--9--6--|
A|------------------------------------------------------------------------------|
E|------------------------------------------------------------------------------|
 |
E|------------------------------------------------------------------------------|
B|------------------------------------------------------------------------------|
G|--6-8--9-8-----------6-8--9-8-----------6-8--9-8-----------6-8--9-8-----------|
D|------------6--9--6------------6--9--6------------6--9--6------------6--9--6--|
A|------------------------------------------------------------------------------|
E|------------------------------------------------------------------------------|
 |
E|-----------------------------------------------------------------------------|
B|-----------------------------------------------------------------------------|
G|--6-8--9-8-----------6-8--9-8-----------6-8--9-8-----------------------------|
D|------------6--9--6------------6--9--6------------6--9-----------------------|
A|---------------------------------------------------------6/7--9--9-9-9brb-7--|
E|-----------------------------------------------------------------------------|



[2:46 - 3:26]


 |  Guitar 1
E|--9~-----2----------9~-----2----------9~-----2----------9~-----2------|
B|--9~-----2--5~------9~-----2--5~------9~-----2--5~------9~-----2--5~--|
G|--9~-----2--4~------9~-----2--4~------9~-----2--4~------9~-----2--4~--|
D|--11~----4--6~------11~----4--6~------11~----4--6~------11~----4--6~--|
A|----------------------------------------------------------------------|
E|----------------------------------------------------------------------|
 |
E|--9---9--9---2-----------------9---9--9---2-----------------|
B|--9---9--9---2--5--5-5--5-5-5--9---9--9---2--5--5-5--5-5-5--|
G|--9---9--9---2--4--4-4--4-4-4--9---9--9---2--4--4-4--4-4-4--|
D|--11--11-11--4--6--6-6--6-6-6--11--11-11--4--6--6-6--6-6-6--|
A|------------------------------------------------------------|
E|------------------------------------------------------------|
 |
E|--9---9--9---2-----------------9---9--9---2-----------------|---4~--|
B|--9---9--9---2--5--5-5--5-5-5--9---9--10--2--4--5-5--5-5-5--|---5~--|
G|--9---9--9---2--4--4-4--4-4-4--9---9--9---2--4--4-4--4-4-4--|---4~--|
D|--11--11-11--4--6--6-6--6-6-6--11--11-11--4--6--6-6--6-6-6--|---6~--|
A|------------------------------------------------------------|-------|
E|------------------------------------------------------------|-------|



 |  Guitar 2
E|-----------------------------------------------------------------------|
B|-----2----2------------2----2------------2----2------------2----2------|
G|---4----4-----4------4----4-----4------4----4-----4------4----4-----4--|
D|-----------------------------------------------------------------------|
A|-----------------------------------------------------------------------|
E|-----------------------------------------------------------------------|
 |
E|------------------------------------------------------------------------|
B|-----2----2------------2----2------------2----2------------2----2-------|
G|---4----4-----4------4----4-----4------4----4-----4------4----4-----4~--|
D|------------------------------------------------------------------------|
A|------------------------------------------------------------------------|
E|------------------------------------------------------------------------|



[END]



***************************************

|  b     bend string
|  ~     held note
|  .     Palm mute
|  /     slide up
|  brb   bend release bend

***************************************
Suggest correction
Creating personal tab
Creating personal tab
You can edit any tab online and save it as your Personal.

You can edit, replace or remove any tab part or add personal notes – all changes will be seen only by you.

Personal tabs can be accessed anytime from any device, even offline.
Learn more »
Give kudos to tab author, rate the tab!
1 2 3 4 5
comments
print report bad tab
guest
You may want to rate the tab now too:
select rating
Wanna post a correction for this tab? Suggest correction