Oops, an error
Loading. Please wait.

Humming Bass Tab

version 1
version 1

Whole song

  • Absolutely love this song, just thought I'd give a go at tabbing it out.

Interactive

220 views 12 this week
no commentswrite comment
1 2 3 4 5
3 more votes to show rating
add to favorites
launch autoscroll
font size
0
reset
guitar tuner
Autoscroll
slow
fast
+/-
esc
set tempo
stop
Help us to improve Ultimate-Guitar.com Take our survey!
×
Author
Difficulty
novice
About this tab version
Absolutely love this song, just thought I'd give a go at tabbing it out. Was this info helpful? Yes No
[Verse 1] x4
G|---------------------------------------------------------------------------|
D|---------------------------------------------------------------------------|
A|-8-8-8-8-8-8-8-8-8-8-8-8-8-8-8-8-8-8-8-8-8-8-8-8-12-12-12-12-10-10-10-10---|
E|---------------------------------------------------------------------------|

G|---------------------------------------------------------------------------|
D|---------------------------------------------------------------------------|
A|---------------------------------------------------------------------------|
E|-6-6-6-6-6-6-6-6-6-6-6-6-6-6-6-6-6-6-6-6-6-6-6-6-10-10-10-10-8-8-8-8-------|

[Pre-Chorus]
G|---------------------------------------------------------------------------|
D|---------------------------------------------------------------------------|
A|---------------------------------------------------------------------------|
E|-5----8----3----3-6--------------------------------------------------------|

[Chorus] x2
G|---------------------------------------------------------------------------|
D|---------------------------------------------------------------------------|
A|-8-8-8-8-8-8-8-8-8-8-8-8-8-8-8-8-8-8-8-8-8-8-8-8-8-8-8-8-8-8-8-8-----------|
E|---------------------------------------------------------------------------|

G|-------------------------------------------------------------------------------|
D|-------------------------------------------------------------------------------|
A|--------------8-8-------------8-8----------------------------------------------|
E|-6--8-8-10-10-----6-8-8-10-10--------------------------------------------------|

[Post-Chorus] x2
G|---------------------------------------------------------------------------|
D|---------------------------------------------------------------------------|
A|-----------8-8-8-8-10-10-10-12-10-8-8-8------------------------------------|
E|-10-10-8-8-----------------------------------------------------------------|

[Verse 2] x2
G|---------------------------------------------------------------------------|
D|---------------------------------------------------------------------------|
A|-8-8-8-8-8-8-8-8-8-8-8-8-8-8-8-8-8-8-8-8-8-8-8-8-12-12-12-12-10-10-10-10---|
E|---------------------------------------------------------------------------|

G|---------------------------------------------------------------------------|
D|---------------------------------------------------------------------------|
A|---------------------------------------------------------------------------|
E|-6-6-6-6-6-6-6-6-6-6-6-6-6-6-6-6-6-6-6-6-6-6-6-6-10-10-10-10-8-8-8-8-------|

[Pre-Chorus 2]
G|---------------------------------------------------------------------------|
D|---------------5-----------------------------------------------------------|
A|-5----8---5--------5----8--------------------------------------------------|
E|----------------------------3----3-6---------------------------------------|

[Bridge]
G|---------------------------------------------------------------------------|
D|---------------------------------------------------------------------------|
A|-5-5-5-5-5-5-5-5-5-5-5-5-8-8-8-8-------------------------------------------|
E|---------------------------------6-6-6-6-6-6-6-6-6-6-6-6-6-6-6-6-----------|

G|---------------------------------------------------------------------------|
D|---------------------------------------------------------------------------|
A|-7-7-7-7-7-7-7-7-7-7-7-7-8-8-8-8-------------------------------------------|
E|---------------------------------------------------------------------------|

G|---------------------------------------------------------------------------|
D|---------------------------------------------------------------------------|
A|-5-5-5-5-5-5-5-5-5-5-5-5-5-5-5-5-5-5-5-5-5-5-5-5-5-5-5-5-5-5-5-5-8-8-8-8---|
E|---------------------------------------------------------------------------|

G|---------------------------------------------------------------------------|
D|---------------------------------------------------------------------------|
A|---------------------------------7-7-7-7-7-7-7-7-7-7-7-7-8-8-8-8-----------|
E|-6-6-6-6-6-6-6-6-6-6-6-6-6-6-6-6-------------------------------------------|

G|---------------------------------------------------------------------------|
D|---------------------------------------------------------------------------|
A|-5-5-5-5-5-5-5-5-5-5-5-5-5-5-5-5-------------------------------------------|
E|---------------------------------------------------------------------------|

[Pre-Chorus 3]
G|---------------------------------------------------------------------------|
D|---------------------------------------------------------------------------|
A|---------------------------------------------------------------------------|
E|-5----8----3----3-6--------------------------------------------------------|

[Chorus 2] x4
G|---------------------------------------------------------------------------|
D|---------------------------------------------------------------------------|
A|-8-8-8-8-8-8-8-8-8-8-8-8-8-8-8-8-8-8-8-8-8-8-8-8-8-8-8-8-8-8-8-8-----------|
E|---------------------------------------------------------------------------|

G|-------------------------------------------------------------------------------|
D|-------------------------------------------------------------------------------|
A|--------------8-8-------------8-8----------------------------------------------|
E|-6--8-8-10-10-----6-8-8-10-10--------------------------------------------------|

[Outro] x2
G|---------------------------------------------------------------------------|
D|---------------------------------------------------------------------------|
A|-----------8-8-8-8-10-10-10-12-10-8-8-8------------------------------------|
E|-10-10-8-8-----------------------------------------------------------------|
Suggest correction
Give kudos to tab author, rate the tab!
1 2 3 4 5
comments
print report bad tab
guest
You may want to rate the tab now too:
select rating
Wanna post a correction for this tab? Suggest correction