Oops, an error
Loading. Please wait.

I Would Hate You If I Could Acoustic chords

version 2
version 2

Whole song

  • Specific tab/chords for the live acoustic version played for Mantooth Sessions.

Interactive

Video

1,231 views 48 this week
no commentswrite comment
1 2 3 4 5
x 3
add to favorites
×
Save as Personal and add changes to this tab that will be seen only by you. Learn more ›
×
You can save this tab as Personal to edit and correct it or add notes. All changes will be seen only by you. Learn more »
launch autoscroll
font size
0
reset
transpose
0
reset
simplify chords
display chords
guitar tuner
edit
Autoscroll
slow
fast
+/-
esc
set tempo
stop
Author
Difficulty
About this tab version
Specific tab/chords for the live acoustic version played for Mantooth Sessions. Was this info helpful? Yes No
Strumming Are these strumming patterns correct? Yes No
Verse 1 & 2 126 bpm
1
&
2
&
3
&
4
&
5
&
6
&
7
&
8
&
9
&
10
&
11
&
12
&
13
&
14
&
15
&
16
&
Listen
Hook 126 bpm
1
&
2
&
3
&
4
&
5
&
6
&
7
&
8
&
9
&
10
&
11
&
12
&
13
&
14
&
15
&
16
&
Listen
Pre-chorus 126 bpm
1
&
2
&
3
&
4
&
5
&
6
&
7
&
8
&
9
&
10
&
11
&
12
&
13
&
14
&
15
&
16
&
Listen
Chorus 126 bpm
1
&
2
&
3
&
4
&
5
&
6
&
7
&
8
&
9
&
10
&
11
&
12
&
13
&
14
&
15
&
16
&
Listen
Bridge 126 bpm
1
&
2
&
3
&
4
&
5
&
6
&
7
&
8
&
9
&
10
&
11
&
12
&
13
&
14
&
15
&
16
&
Listen
Verse 3 126 bpm
1
&
2
&
3
&
4
&
5
&
6
&
7
&
8
&
9
&
10
&
11
&
12
&
13
&
14
&
15
&
16
&
Listen
Turnover Acoustic Session & Interview - Mantooth Sessions
https://youtu.be/0FK8s-fCnws?t=42s (0:42-4:30)

Tabbed by: Matthew Goon
Email: Mjg3229@gmail.com

Tuning: Standard
No capo

Chords:
e|-----3---------3---------3---------3---------3---------3-------|
B|-----3---------3---------3---------3---------3---------3-------|
G|-----0---------0---------0---------0---------0---------2-------|
D|-----0---------0---------2---------0---------2---------0-------|
A|-----x---------2---------2---------3---------0---------x-------|
E|-----3---------x---------0---------x---------x---------3-------|
       G5        Em7       Em7/B     Cadd9     A7sus4    Gsus2

[Verse 1]

G5                                  Em7
I hear you’ve been telling all your friends that you’re done with me
         Em7/B                            Cadd9
Like you always knew things wouldn’t work out. And I’ve been

G5                                Em7
hearing things from people that I don’t want to talk to,
        Em7/B                            Cadd9
Like it matters who you’re sleeping with now.


[Hook]

        G5                  Em7
Can I erase from my mind anything that you said or
    Em7/B                        Cadd9
any time that we spent with each other?


[Pre-chorus]

        G5                         Em7
I don’t want to waste away another cell on a memory
            Em7/B                    Cadd9
When you’re just another meaningless lover.


[Chorus]

   G5
Forget the nights that we spent laughing
         Cadd9
Till the morning on your bedroom floor
          Em7/B                                          Cadd9
Without a thought about your roommate asleep down the hall.
G5                               Cadd9
  Forget the days we’d waste in bed, tangled,
                            Em7/B
The smoke still on your breath,
Em7/B                                 Cadd9
  Undressed and pinning you up to the wall.


[Verse 2]

      G5                Em7                Em7/B         Cadd9
And I swore I heard you talking when I was tossing in my sleep.
         G5               Em7               Em7/B         Cadd9
You were always trying to walk in circles around me.


[Hook]

      G5                   Em7             Em7/B            Cadd9
I was out one night when I saw you and you froze me where I stood.


[Pre-chorus]

        G5                Em7             Em7/B         Cadd9
I would hate you, I would hate you if I could.


[Chorus]

   G5
Forget the nights that we spent laughing
         Cadd9
Till the morning on your bedroom floor
          Em7/B                                          Cadd9
Without a thought about your roommate asleep down the hall.
G5                               Cadd9
  Forget the days we’d waste in bed, tangled,
                            Em7/B
The smoke still on your breath,
Em7/B                                 Cadd9
  Undressed and pinning you up to the wall.

[Bridge]

   (x12)   (x7)   (x7)  (x13)   (x7)   (x6)   (x1)
e|---3------3------3------3------3------3------3-----------------|
B|---3------3------3------3------3------3------3-----------------|
G|---0------0------0------0------0-----h2-----p0-----------------|
D|---0------2------0------2------0------0------0-----------------|
A|---3------0------x------2------x------x------x-----------------|
E|---x------x------3------0------3------3------3-----------------|

Cadd9             A7sus4       G5
  I would hate you but I’m not finished yet.
Em7/B             G5           Gsus2
  I would hate you but I’m not finished yet.

[Verse 3]

Cadd9                  A7sus4   G5             Cadd9
  Even you, up on that pedestal, the time will come
                   Em7/B               A7sus4
When you will deconstruct yourself and remake what you are.
Cadd9                   A7sus4   G5       Cadd9
  When it does you’ll remember me and the words I spoke
           Em7/B        A7sus4                Cadd9
And wonder how you ever could have strayed so far.


Cadd9                  A7sus4   G5             Cadd9
  Even you, up on that pedestal, the time will come
                   Em7/B               A7sus4
When you will deconstruct yourself and remake what you are.
Cadd9                   A7sus4   G5       Cadd9
  When it does you’ll remember me and the words I spoke
           Em7/B        A7sus4                Cadd9
And wonder how you ever could have strayed so far.

[Outro]

e|-3---|--------------------------------|--------------------------------|
B|---3-|------3-------3---------------3-|------3-------3-----------------|
G|-----|----0-------0-------0-----------|----0-------0-------0-----------|
D|-----|--2-------2-------2-------------|--2-------2-------2-------------|
A|-----|3-------3-------3---------------|3-------3-------3---------------|
E|-----|--------------------------------|--------------------------------|
(pickup)

e|-----|3-------------------------------|--------------------------------|
B|-----|3-------------------------------|--------------------------------|
G|-----|0-------------------------------|--------------------------------|
D|-----|2-------------------------------|--------------------------------|
A|-----|3-------------------------------|--------------------------------|
E|-----|x-------------------------------|--------------------------------|
(pickup)
 

************************************

| x  Dead note
| h  Hammer-on
| p  Pull-off 

************************************

            
            
Suggest correction
Creating personal tab
Creating personal tab
You can edit any tab online and save it as your Personal.

You can edit, replace or remove any tab part or add personal notes – all changes will be seen only by you.

Personal tabs can be accessed anytime from any device, even offline.
Learn more »
Give kudos to tab author, rate the tab!
1 2 3 4 5
comments
print report bad tab
guest
You may want to rate the tab now too:
select rating
Wanna post a correction for this tab? Suggest correction