Oops, an error
Loading. Please wait.

Intrapersonal tab

136 views 6 this week
no commentswrite comment
1 2 3 4 5
3 more votes to show rating
add to favorites
×
Save as Personal and add changes to this tab that will be seen only by you. Learn more ›
×
You can save this tab as Personal to edit and correct it or add notes. All changes will be seen only by you. Learn more »
launch autoscroll
font size
0
reset
how to read this tab
guitar tuner
edit
Autoscroll
slow
fast
+/-
esc
set tempo
stop
About this tab version
Tab for Interpersonal by Turnover. Was this info helpful? Yes No
Artist: Turnover
Song: Intrapersonal
Album: Peripheral Vision
Track: 11

Tuning: Open E (E B E G# B E)

[Intro]
    Guitar 1 (x2)                                              (End 2)
E |--------------|--------------|--------------|--------------||-------||
B |--0--0--0--0--|--0--0--0--0--|--0--0--0--0--|--0--0--0--0--||---0~--||
G#|--0--0--0--0--|--0--0--0--0--|--0--0--0--0--|--0--0--0--0--||---0~--||
E |--0--0--0--0--|--0--0--0--0--|--0--0--0--0--|--0--0--0--0--||---0~--||
B |--5--5--5--5--|--5--5--5--5--|--5--5--5--5--|--5--5--5--5--||---5~--||
E |--------------|--------------|--------------|--------------||-------||

    Guitar 2 (x2)                                  (End 2)
E |-----------------------------------------------||-------||
B |--12---9---12---9-----12-9---------------------||-------||
G#|-----8---8----8---8--------10-10-10h12-10\8----||---8~--||
E |--------------------------------------------9--||-------||
B |-----------------------------------------------||-------||
E |-----------------------------------------------||-------||

[Verse]
    Guitar 1 (x3)
E |-------------------|-------------------|-------------------|--------------------|
B |----0-------0---0--|----0-------0---0--|-------------------|--------------------|
G#|--------0----------|--------0----------|--------0----------|--------0-----------|
E |-------------------|-------------------|----0-------0---0--|----0-------0---0---|
B |--5---5-------5----|--5---5-------5----|--7---7-------7----|--9---9-------9-----|
E |-------------------|-------------------|-------------------|--------------------|
  |
E |-------------------|-------------------|----------------------|----------------------|
B |-------------------|-------------------|----------------------|----------------------|
G#|-------------------|-------------------|----------------------|----------------------|
E |--------0----------|--------0----------|----------0-----------|----------0-----------|
B |----0-------0---0--|----0-------0---0--|-----0--------0----0--|-----0--------0----0--|
E |--9---9-------9----|--9---9-------9----|--12---12-------12----|--12---12-------12----|

    Guitar 2 (x2 - After Guitar 1 plays once)
E |--------------|--------------|--------------|--------------|
B |----7---7-----|----7---7-----|----9---9-----|----7---7-----|
G#|--8---8----8--|--8---8----8--|--8---8----8--|--8---8----8--|
E |--------------|--------------|--------------|--------------|
B |--------------|--------------|--------------|--------------|
E |--------------|--------------|--------------|--------------|
  |
E |--------------|--------------|--------------|--------------|
B |----5---5-----|----5---5-----|----7---7-----|----7---7-----|
G#|--5---5----5--|--5---5----5--|--8---8----8--|--8---8----8--|
E |--------------|--------------|--------------|--------------|
B |--------------|--------------|--------------|--------------|
E |--------------|--------------|--------------|--------------|

[Chorus]
    Guitar 1 (x4)
E |--------------|--------------|--------------|--------------|
B |--0--0--0--0--|--0--0--0--0--|--0--0--0--0--|--0--0--0--0--|
G#|--0--0--0--0--|--0--0--0--0--|--0--0--0--0--|--0--0--0--0--|
E |--0--0--0--0--|--0--0--0--0--|--0--0--0--0--|--0--0--0--0--|
B |--5--5--5--5--|--5--5--5--5--|--5--5--5--5--|--5--5--5--5--|
E |--------------|--------------|--------------|--------------|

    Guitar 2 (x4)                                  (End 4)
E |-----------------------------------------------|-------|
B |--12---9---12---9-----12-9---------------------|-------|
G#|-----8---8----8---8--------10-10-10h12-10\8----|---8~--|
E |--------------------------------------------9--|-------|
B |-----------------------------------------------|-------|
E |-----------------------------------------------|-------|

[Post-Chorus/Verse]
    Guitar 1 (x3)
E |-------------------|-------------------|-------------------|--------------------|
B |----0-------0---0--|----0-------0---0--|-------------------|--------------------|
G#|--------0----------|--------0----------|--------0----------|--------0-----------|
E |-------------------|-------------------|----0-------0---0--|----0-------0---0---|
B |--5---5-------5----|--5---5-------5----|--7---7-------7----|--9---9-------9-----|
E |-------------------|-------------------|-------------------|--------------------|
  |
E |-------------------|-------------------|----------------------|----------------------|
B |-------------------|-------------------|----------------------|----------------------|
G#|-------------------|-------------------|----------------------|----------------------|
E |--------0----------|--------0----------|----------0-----------|----------0-----------|
B |----0-------0---0--|----0-------0---0--|-----0--------0----0--|-----0--------0----0--|
E |--9---9-------9----|--9---9-------9----|--12---12-------12----|--12---12-------12----|

    Guitar 2 (x2 - After Guitar 1 plays once)
E |--------------|--------------|--------------|--------------|
B |----7---7-----|----7---7-----|----9---9-----|----7---7-----|
G#|--8---8----8--|--8---8----8--|--8---8----8--|--8---8----8--|
E |--------------|--------------|--------------|--------------|
B |--------------|--------------|--------------|--------------|
E |--------------|--------------|--------------|--------------|
  |
E |--------------|--------------|--------------|--------------|
B |----5---5-----|----5---5-----|----7---7-----|----7---7-----|
G#|--5---5----5--|--5---5----5--|--8---8----8--|--8---8----8--|
E |--------------|--------------|--------------|--------------|
B |--------------|--------------|--------------|--------------|
E |--------------|--------------|--------------|--------------|

[Post Chorus]
    Guitar 1
E |-------------------------------------------|-------------------------------------------|
B |-------------------------------------------|-------------------------------------------|
G#|-------------------------------------------|-------------------------------------------| (x3)
E |--0--0--0--0--0--0--0--0--0-0-0-0-0-0-0-0--|--0--0--0--0--0--0--0--0--0-0-0-0-0-0-0-0--|
B |--12-14-12-12-12-12-12-12-7-9-7-9-9-9-9-9--|--12-14-12-12-12-12-12-12-7-9-7-5-5-5-5-5--|
E |-------------------------------------------|-------------------------------------------|
  |
E |-------------------------------------------|-----------------------------------|
B |-------------------------------------------|-----------------------------------|
G#|-------------------------------------------|-----------------------------------|
E |--0--0--0--0--0--0--0--0--0-0-0-0-0-0-0-0--|--0-0-0-0-0-0-0-0-0-0-0-0-0-0-0-0--|
B |--12-14-12-12-12-12-12-12-7-9-7-9-9-9-9-9--|--5-5-5-5-5-5-5-5-5-5-5-5-5-5-5-5--|
E |-------------------------------------------|-----------------------------------|

    Guitar 2 (See live video: https://www.youtube.com/watch?v=JI1KRjOeTXc)
E |-----------------------------------|-----------------------------------|
B |------7---------7-------7---7---7--|------7---------7-----------7---7--|
G#|----------8---------8--------------|----------8---------8---8----------|
E |--0-0---0---0-0---0---0---0---0----|--0-0---0---0-0---0---0---0---0----|
B |-----------------------------------|-----------------------------------|
E |-----------------------------------|-----------------------------------|
  |
E |-----------------------------------|------7---------7---------7--------|
B |------7---------9-------9---9---9--|------------9---------9------------|
G#|----------8---------8--------------|--8-8---8-8---8---8-8---8---8-8-8--|
E |--0-0---0---0-0---0---0---0---0----|-----------------------------------|
B |-----------------------------------|-----------------------------------|
E |-----------------------------------|-----------------------------------|
  |
E |-----------------------------------|-----------------------------------|
B |------7---------7-------7---7---7--|------7---------7-----------7---7--|
G#|----------8---------8--------------|----------8---------8---8----------|
E |--0-0---0---0-0---0---0---0---0----|--0-0---0---0-0---0---0---0---0----|
B |-----------------------------------|-----------------------------------|
E |-----------------------------------|-----------------------------------|
  |
E |-----------------------------------|-----------------------------------|
B |------7---------9-------9---9---9--|------0---------0-----0---------0--|
G#|----------8---------8--------------|------------0---------------0------|
E |--0-0---0---0-0---0---0---0---0----|--0-0---0-0---0---0-0---0-0---0----|
B |-----------------------------------|-----------------------------------|
E |-----------------------------------|-----------------------------------|

[Bridge]
    Guitar 1 (x3)
E |------------------------------------|----------------------------------|
B |------------------------------------|----------------------------------|
G#|------0-------0--------0-------0----|----------------------------------|
E |----0---0---0---0----0---0---0---0--|------0-------0------0-------0----|
B |--2-------2--------0-------0--------|----2---2---2---2--2---2---2---2--|
E |------------------------------------|--2-------2-------5------4--------|

    Guitar 2 (x3)
E |-----------------------------------|--------------------------------7-------|
B |------9-------9-------9-------9----|-------9---------9--------9-------10-9--|
G#|----8---8---8---8---8---8---8---8--|----10---10---10---10---8---8-----------|
E |--9-------9-------7-------7--------|--7---------7---------7-------7---------|
B |-----------------------------------|----------------------------------------|
E |-----------------------------------|----------------------------------------|

[Chorus/Outro]
    Guitar 1
E |--------------|--------------|--------------|--------------|
B |--0--0--0--0--|--0--0--0--0--|--0--0--0--0--|--0--7--0--0--|
G#|--0--0--0--0--|--0--5--0--0--|--0--0--0--0--|--0--0--0--0--|
E |--0--0--0--0--|--0--0--0--0--|--0--0--0--0--|--0--0--0--0--|
B |--5--5--5--5--|--5--5--5--5--|--5--5--5--5--|--5--5--5--5--|
E |--------------|--------------|--------------|--------------|
  |
E |--------------|--------------|--------------|--------------|
B |--0--0--0--0--|--0--0--0--0--|--0--0--0--0--|--0--0--0--0--|
G#|--0--0--0--0--|--0--0--0--0--|--0--0--0--0--|--0--0--0--0--|
E |--0--0--0--0--|--0--0--0--0--|--0--0--0--0--|--0--0--0--0--|
B |--5--5--5--5--|--5--5--5--5--|--5--5--5--5--|--5--5--5--5--|
E |--------------|--------------|--------------|--------------|
  |
E |--------------|--------------|--------------|--------------|
B |--0--0--0--0--|--0--0--0--0--|--0--0--0--0--|--0--0--0--0--|
G#|--0--0--0--0--|--0--0--0--0--|--0--0--0--0--|--0--0--0--0--|
E |--0--0--0--0--|--0--0--0--0--|--0--0--0--0--|--0--0--0--0--|
B |--5--5--5--5--|--5--5--5--5--|--5--5--5--5--|--5--5--5--5--|
E |--------------|--------------|--------------|--------------|
  |
E |--------------|--------------|--------------|--------------|-------|
B |--0--0--0--0--|--0--0--0--0--|--0--0--0--0--|--0--0--0--0--|---0~--|
G#|--0--0--0--0--|--0--0--0--0--|--0--0--0--0--|--0--0--0--0--|---0~--|
E |--0--0--0--0--|--0--0--0--0--|--0--0--0--0--|--0--0--0--0--|---0~--|
B |--5--5--5--5--|--5--5--5--5--|--5--5--5--5--|--5--5--5--5--|---5~--|
E |--------------|--------------|--------------|--------------|-------|

    Guitar 2 (x3 - After Guitar 1 plays once)      (End 3)
E |-----------------------------------------------|-------|
B |--12---9---12---9-----12-9---------------------|-------|
G#|-----8---8----8---8--------10-10-10h12-10\8----|---8~--|
E |--------------------------------------------9--|-------|
B |-----------------------------------------------|-------|
E |-----------------------------------------------|-------|


*************************

|  ~    held note
|  h    hammer on
|  \    slide down

*************************
Suggest correction
Creating personal tab
Creating personal tab
You can edit any tab online and save it as your Personal.

You can edit, replace or remove any tab part or add personal notes – all changes will be seen only by you.

Personal tabs can be accessed anytime from any device, even offline.
Learn more »
Give kudos to tab author, rate the tab!
1 2 3 4 5
comments
print report bad tab
guest
You may want to rate the tab now too:
select rating
Wanna post a correction for this tab? Suggest correction