Oops, an error
Loading. Please wait.

New Scream Tab

version 2
version 2

Whole song

  • Tab is based on the live versions of the song.
361 views 15 this week
no commentswrite comment
1 2 3 4 5
3 more votes to show rating
add to favorites
launch autoscroll
font size
0
reset
how to read this tab
guitar tuner
×
Best way to learn
"New Scream"
Autoscroll
slow
fast
+/-
esc
set tempo
stop
Author
Difficulty
Capo
  follow
intermediate
2nd fret
About this tab version
Tab is based on the live versions of the song. Was this info helpful? Yes No
Artist: Turnover
Song: New Scream
Album: Peripheral Vision
Tabbed By: Matthew Florio
Email: shempashland@yahoo.com

You can watch the Audiotree sessions on youtube to use as a reference.
This is a tab for Eric's lead parts.
I added cues with the lyrics to follow where the parts go; just play the riffs where they're labeled.


Capo 2nd Fret

[Intro]

[Lead Riff]
e|--------------------10---------------------|-------------------10--------------------------|
B|---12--13--12--10-12-------13--12--10------|--12--13--12--10-12-------13--12--10-------12~-|
G|----------------------12----------------12-|---------------------12----------------12------|
D|-------------------------------------12----|------------------------------------12---------|
A|-------------------------------------------|-----------------------------------------------|
E|-------------------------------------------|-----------------------------------------------| 

e|--------------------10---------------------|-------------------10--------------------------|
B|---12--13--12--10-12-------13--12--10------|--12--13--12--10-12-------13--12--10-------12~-|
G|----------------------12----------------12-|---------------------12----------------12------|
D|-------------------------------------12----|------------------------------------12---------|
A|-------------------------------------------|-----------------------------------------------|
E|-------------------------------------------|-----------------------------------------------| 

[Verse]

[No Guitar]
Can I stay at home? I don’t want to go,
I don’t want to wake up till the sun is hanging low.

[Verse Riff]
e|------10-------10---------------------------|-10-------10----------------------------|
B|---------12-------12----12--------10--------|----12-------12----12--------10---------|
G|---12-------12-------12----12--12----12--12-|-------12-------12----12--12----12--12--|
D|--------------------------------------------|----------------------------------------|
A|--------------------------------------------|----------------------------------------|
E|--------------------------------------------|----------------------------------------|
Stay up through the night, sleep away the light. Just another dream I had that's better than my life.

[Lead Riff]
e|--------------------10---------------------|-------------------10--------------------------|
B|---12--13--12--10-12-------13--12--10------|--12--13--12--10-12-------13--12--10-------12~-|
G|----------------------12----------------12-|---------------------12----------------12------|
D|-------------------------------------12----|------------------------------------12---------|
A|-------------------------------------------|-----------------------------------------------|
E|-------------------------------------------|-----------------------------------------------| 

[No Guitar]
Adolescent dreams gave to adult screams,
Paranoid that I won’t have all the things they say I need.

[Verse Riff]
e|------10-------10---------------------------|-10-------10----------------------------|
B|---------12-------12----12--------10--------|----12-------12----12--------10---------|
G|---12-------12-------12----12--12----12--12-|-------12-------12----12--12----12--12--|
D|--------------------------------------------|----------------------------------------|
A|--------------------------------------------|----------------------------------------|
E|--------------------------------------------|----------------------------------------|
What if I don’t want a pattern on my lawn. All I know is somethings wrong because everyday...

[Chorus]
e|------------------------------|--------------------------------------|
B|------------------------------|--------------------------------------|
G|---------------7---9-9-9-7----|---------------7---9-9-9-7------------|
D|---7h9~---7h9~-------------9~-|---7h9~---7h9~-------------9~---------|
A|------------------------------|--------------------------------------|
E|------------------------------|--------------------------------------|
I’m craving that new scream lusting for more than just, old dreams...

[Lead Riff]
e|--------------------10---------------------|-------------------10--------------------------|
B|---12--13--12--10-12-------13--12--10------|--12--13--12--10-12-------13--12--10-------12~-|
G|----------------------12----------------12-|---------------------12----------------12------|
D|-------------------------------------12----|------------------------------------12---------|
A|-------------------------------------------|-----------------------------------------------|
E|-------------------------------------------|-----------------------------------------------|

[No Guitar]
Can I reset my brain? If not I’ll go insane,
I swear to God that I don’t think I can go another day.

[Verse Riff]
e|------10-------10---------------------------|-10-------10----------------------------|
B|---------12-------12----12--------10--------|----12-------12----12--------10---------|
G|---12-------12-------12----12--12----12--12-|-------12-------12----12--12----12--12--|
D|--------------------------------------------|----------------------------------------|
A|--------------------------------------------|----------------------------------------|
E|--------------------------------------------|----------------------------------------|
Am I the only one? Is this in all of us? I hate the thought that I’m alone...

[Chorus]
e|------------------------------|--------------------------------------|
B|------------------------------|--------------------------------------|
G|---------------7---9-9-9-7----|---------------7---9-9-9-7------------|
D|---7h9~---7h9~-------------9~-|---7h9~---7h9~-------------9~---------|
A|------------------------------|--------------------------------------|
E|------------------------------|--------------------------------------|
craving that new scream, lusting for more than just, old dreams...

[Bridge]
*Play 2x before the vocals come in
e|-----------------------------------------|
B|-----------------------0~----------------|
G|--------0~------0~-------0~-------0~-----|
D|---------------------0~---------0~-------|
A|-----7~------7~--------------------------|
E|---8~------8~------3~--------5~----------|

*The Bridge Riff plays until the end. There is another guitar part playing the Lead Riff underneath.
e|-----------------------------------------|
B|-----------------------0~----------------|
G|--------0~------0~-------0~-------0~-----|
D|---------------------0~---------0~-------|
A|-----7~------7~--------------------------|
E|---8~------8~------3~--------5~----------|
Still craving more than just, the same as how it was.

e|-----------------------------------------|
B|-----------------------0~----------------|
G|--------0~------0~-------0~-------0~-----|
D|---------------------0~---------0~-------|
A|-----7~------7~--------------------------|
E|---8~------8~------3~--------5~----------|
I’ve been collecting dust, I’ve been waiting still craving…

Guitar 2
*This guitar part is just rung out through the bridge until the end.
Follow this guide know where each chord is played based on the timing:
 [   1  2  3  4     1  2  3  4  ]
e|---3~----3~---|---3~----3~----|
B|---3~----3~---|---3~----3~----|
G|---0~----0~---|---0~----2~----|
D|---2~----2~---|---0~----2~----|
A|---3~----3~---|---x~----0~----|
E|--------------|---3~----------|
     
Guitar 3 
*Comes half way through until the end.
e|--------------------10---------------------|-------------------10--------------------------|
B|---12--13--12--10-12-------13--12--10------|--12--13--12--10-12-------13--12--10-------12~-|
G|----------------------12----------------12-|---------------------12----------------12------|
D|-------------------------------------12----|------------------------------------12---------|
A|-------------------------------------------|-----------------------------------------------|
E|-------------------------------------------|-----------------------------------------------|



************************************

| ~  Vibrato
| h  Hammer-on
| x  dead note

************************************
Suggest correction
Give kudos to tab author, rate the tab!
1 2 3 4 5
comments
print report bad tab
guest
You may want to rate the tab now too:
select rating
Wanna post a correction for this tab? Suggest correction