Oops, an error
Loading. Please wait.

Pray For Me tab

version 1
version 1

Whole song

  • This is the rhythm guitar part of the song. The en... Show more
79 views 6 this week
no commentswrite comment
1 2 3 4 5
3 more votes to show rating
add to favorites
×
Save as Personal and add changes to this tab that will be seen only by you. Learn more ›
×
You can save this tab as Personal to edit and correct it or add notes. All changes will be seen only by you. Learn more »
launch autoscroll
font size
0
reset
how to read this tab
guitar tuner
edit
Autoscroll
slow
fast
+/-
esc
set tempo
stop
Author
Difficulty
About this tab version
This is the rhythm guitar part of the song. The entire tab was done by ear. The rhythm of the chords is pretty exact. Was this info helpful? Yes No
[Intro]
e|---------------------------------------------------------------------------|
B|---------------------------------------------------------------------------|
G|--4--4--4--4--7~~~---------------------------------------------------------|
D|--4--4--4--4--7~~~--5--5--5--5--2--2--2--2---------------------------------|   x 2 (Second time let the
A|--2--2--2--2--5~~~--5--5--5--5--2--2--2--2---------------------------------|        last chord ring out)
E|--------------------3--3--3--3--0--0--0--0---------------------------------|

[Verse]
e|---------------------------------------------------------------------------|
B|---------------------------------------------------------------------------|
G|--4--4--4--4--7--7--7--7---------------------------------------------------|
D|--4--4--4--4--7--7--7--7--5--5--5--5--2--2--2--2---------------------------|
A|--2--2--2--2--5--5--5--5--5--5--5--5--2--2--2--2---------------------------|
E|--------------------------3--3--3--3--0--0--0--0---------------------------|

e|---------------------------------------------------------------------------|
B|---------------------------------------------------------------------------|
G|--4--4--4--4--7--7--7--7---------------------------------------------------|
D|--4--4--4--4--7--7--7--7--5--5--5--5--2--2---------------------------------|   Mute after playing last  
A|--2--2--2--2--5--5--5--5--5--5--5--5--2--2---------------------------------|   chord twice
E|--------------------------3--3--3--3--0--0---------------------------------|

e|---------------------------------------------------------------------------|
B|---------------------------------------------------------------------------|
G|--4--4--4--4--7--7--7--7---------------------------------------------------|
D|--4--4--4--4--7--7--7--7--5--5--5--5--2--2--2--2---------------------------|
A|--2--2--2--2--5--5--5--5--5--5--5--5--2--2--2--2---------------------------|
E|--------------------------3--3--3--3--0--0--0--0---------------------------|

e|---------------------------------------------------------------------------|
B|---------------------------------------------------------------------------|
G|--4--4--4--4--7--7--7--7---------------------------------------------------|
D|--4--4--4--4--7--7--7--7--5--5--5--5--2--2--2--2---------------------------|
A|--2--2--2--2--5--5--5--5--5--5--5--5--2--2--2--2---------------------------|
E|--------------------------3--3--3--3--0--0--0--0---------------------------|

[Build up]
e|---------------------------------------------------------------------------|
B|---------------------------------------------------------------------------|
G|--4-----------4-----------------4-----------4------------------------------|
D|--4-----------4--5----5--5-5----4-----------4--2----2--2-2-----------------|
A|--2--2--2--2--2--5----5--5-5----2--2--2--2--2--2----2--2-2-----------------|
E|-----------------3----3--3-3-------------------0----0--0-0-----------------|
       PM PM PM                    PM PM PM

e|---------------------------------------------------------------------------|
B|---------------------------------------------------------------------------|
G|--4-----------4-----------------4-----------4------------------------------|
D|--4-----------4--5----5--5-5----4-----------4--2----2--2-2---5-5-5-5-------|
A|--2--2--2--2--2--5----5--5-5----2--2--2--2--2--2----2--2-2---5-5-5-5-------|
E|-----------------3----3--3-3-------------------0----0--0-0---3-3-3-3-------|
       PM PM PM                    PM PM PM

[Solo]
e|-------------------------------------------|-------------------------------|
B|-----------------------------2-------------|-------------------------------|
G|---------------------------2---2------2----|--2-2-2-2-2--------------------|
D|----0-4h5p4p0------0-----0----------2---2--|--2-2-2-2-2--------------------|   x 4 (Fourth time play 
A|-----------------2---2------------0--------|--0-0-0-0-0--------------------|        the chord instead
E|--3------------0---------------------------|-------------------------------|        of the last part)

[Bridge]
e|---------------------------------------------------------------------------|
B|---------------------------------------------------------------------------|
G|--------------------------------7--7--7-7-7-7------------------------------|
D|--5--5--5-5-5-5--2--2--2-2-2-2--7--7--7-7-7-7--7--7--7-7-7-7---------------|   x 2
A|--5--5--5-5-5-5--2--2--2-2-2-2--5--5--5-5-5-5--7--7--7-7-7-7---------------|
E|--3--3--3-3-3-3--0--0--0-0-0-0-----------------5--5--5-5-5-5---------------|

e|--------------------------------|------------------------------------------|
B|--------------------------------|------------------------------------------|
G|--------------------------------|------------------------------------------|
D|--5--5--5-5-5-5--2--2--2-2-2-2--|--5-5-5-5-5-5-5-5-2-2-2-2-2-2-2-2---------| After playing the first   
A|--5--5--5-5-5-5--2--2--2-2-2-2--|--5-5-5-5-5-5-5-5-2-2-2-2-2-2-2-2---------| section one time, play the 
E|--3--3--3-3-3-3--0--0--0-0-0-0--|--3-3-3-3-3-3-3-3-0-0-0-0-0-0-0-0---------| second section 4 x 

[ Intro Riff]
e|---------------------------------------------------------------------------|
B|---------------------------------------------------------------------------|
G|--4--4--4--4--7~~~---------------------------------------------------------|
D|--4--4--4--4--7~~~--5--5--5--5--2--2--2--2---------------------------------|   x 2 
A|--2--2--2--2--5~~~--5--5--5--5--2--2--2--2---------------------------------|        
E|--------------------3--3--3--3--0--0--0--0---------------------------------|

[Verse]
e|---------------------------------------------------------------------------|
B|---------------------------------------------------------------------------|
G|--4--4--4--4--7--7--7--7---------------------------------------------------|
D|--4--4--4--4--7--7--7--7--5--5--5--5--2--2--2--2---------------------------|
A|--2--2--2--2--5--5--5--5--5--5--5--5--2--2--2--2---------------------------|
E|--------------------------3--3--3--3--0--0--0--0---------------------------|

e|---------------------------------------------------------------------------|
B|---------------------------------------------------------------------------|
G|--4--4--4--4--7--7--7--7---------------------------------------------------|
D|--4--4--4--4--7--7--7--7--5--5--5--5--2--2---------------------------------|   Mute after playing last  
A|--2--2--2--2--5--5--5--5--5--5--5--5--2--2---------------------------------|   chord twice
E|--------------------------3--3--3--3--0--0---------------------------------|

e|---------------------------------------------------------------------------|
B|---------------------------------------------------------------------------|
G|--4--4--4--4--7--7--7--7---------------------------------------------------|
D|--4--4--4--4--7--7--7--7--5--5--5--5--2--2--2--2---------------------------|
A|--2--2--2--2--5--5--5--5--5--5--5--5--2--2--2--2---------------------------|
E|--------------------------3--3--3--3--0--0--0--0---------------------------|

e|---------------------------------------------------------------------------|
B|---------------------------------------------------------------------------|
G|--4--4--4--4--7--7--7--7---------------------------------------------------|
D|--4--4--4--4--7--7--7--7--5--5--5--5--2--2--2------------------------------|   Let last chord ring out
A|--2--2--2--2--5--5--5--5--5--5--5--5--2--2--2------------------------------|
E|--------------------------3--3--3--3--0--0--0------------------------------|

            
            
Suggest correction
Creating personal tab
Creating personal tab
You can edit any tab online and save it as your Personal.

You can edit, replace or remove any tab part or add personal notes – all changes will be seen only by you.

Personal tabs can be accessed anytime from any device, even offline.
Learn more »
Give kudos to tab author, rate the tab!
1 2 3 4 5
comments
print report bad tab
guest
You may want to rate the tab now too:
select rating
Wanna post a correction for this tab? Suggest correction