Oops, an error
Loading. Please wait.

Sleepless Nights Tab

1,534 views 3 this week
no commentswrite comment
1 2 3 4 5
please rate
add to favorites
launch autoscroll
font size
0
reset
how to read this tab
guitar tuner
Autoscroll
slow
fast
+/-
esc
set tempo
stop
Help us to improve Ultimate-Guitar.com Take our survey!
×
-------------------------------------------------------------------------------
                             Sleepless Nights by Turnover
-------------------------------------------------------------------------------
Tabbed by: Iamtheoceanusea

Learned this by completely by ear in Drop C. But, I am sure it can easily be transposed 
to Drop C# or even Drop D. Easy Song. Great Tune to Rock Out.

PLEASE RATE!!!

Root notes are....
 F#, E, and D.

Octave root notes are...
B, C, and E

Peace and love.....


Tuning: Drop C

Intro:   x2

  F#                                 E                           D
|------------------------------------------------------------------------------------|
|------------------------------------------------------------------------------------|
|------------------------------------------------------------------------------------|
|-6-6-6-6-6-6-x--4-4-4-4-4-4-4-x--2-2-2-2-2-2-x-2-2-2-2-2-2--------------------------|
|-6-6-6-6-6-6-x--4-4-4-4-4-4-4-x--2-2-2-2-2-2-x-2-2-2-2-2-2--------------------------|
|-6-6-6-6-6-6-x--4-4-4-4-4-4-4-x--2-2-2-2-2-2-x-2-2-2-2-2-2--------------------------|

Chorus:      x2

F#                                                 E
|-------------------------------------------------------------------------------|
|-------------------------------------------------------------------------------|
|--------------6-6-6-8-8-8----------------6-6-6-8-8-8---------------------------|
|-6-6-6-6-6-6-x-x-x-x-x-x-4-4-4-4-4-4-4--x-x-x-x-x-x----------------------------|
|-6-6-6-6-6-6-4-4-4-6-6-6-4-4-4-4-4-4-4--4-4-4-6-6-6----------------------------|
|-6-6-6-6-6-6--------------4-4-4-4-4-4-4----------------------------------------|

  D
----------------------------------------------------------|
----------------------------------------------------------|
------------6-6-6-8-8-8--12-12-12-12-12-12----------------|
2-2-2-2-2-2-x-x-x-x-x-x--x--x--x--x--x--x-----------------|
2-2-2-2-2-2-4-4-4-6-6-6--9--9--9--9--9--9-----------------|
2-2-2-2-2-2-----------------------------------------------|

Verse 1:

    x2
    F#  E         D
|------------------------------------------------------------------------------------|
|--------------------------/----------------------\----------------------------------|
|-------------------------/------------------------\---12----------------------------|
|-6---4-x--2-2-2-2-2-2--2-2-2-2-2-2------OR-------\---x------------------------------|
|-6---4-x--2-2-2-2-2-2--2-2-2-2-2-2-------------------9------------------------------|
|-6---4-x--2-2-2-2-2-2--2-2-2-2-2-2--------------------------------------------------|


           x2
                F#                  E                          D                        
< After second time mute strings>
|------------------------------------------------------------------------------------|
|------------------------------------------------------------------------------------|
|------------------------------------------------------------------------------------|
|-6-6-6-6-6-6---4-4-4-4-4-4-4--2-2-2-2-2-2--2-2-2-2-2-2--x-x-------------------------|
|-6-6-6-6-6-6---4-4-4-4-4-4-4--2-2-2-2-2-2--2-2-2-2-2-2--x-x-------------------------|
|-6-6-6-6-6-6---4-4-4-4-4-4-4--2-2-2-2-2-2--2-2-2-2-2-2--x-x-------------------------|

Chorus once more.


Verse 2:

    x2
    F#  E         D
|------------------------------------------------------------------------------------|
|------------------------------------------------------------------------------------|
|------------------------------------------------------------------------------------|
|-6---4-x--2-2-2-2-2-2--2-2-2-2-2-2--------------------------------------------------|
|-6---4-x--2-2-2-2-2-2--2-2-2-2-2-2--------------------------------------------------|
|-6---4-x--2-2-2-2-2-2--2-2-2-2-2-2--------------------------------------------------|


Outro:

    F#            E        D (PalmMuteDa"D")
|-------------------------------------------------------------------------------------|
|-------------------------------------------------------------------------------------|
|-------------------------------------------------------------------------------------|
|-6-------4---2-2-2-2-2-2-------------------------------------------------------------|
|-6-------4---2-2-2-2-2-2-------------------------------------------------------------|
|-6-------4---2-2-2-2-2-2-------------------------------------------------------------|

Second Part of Outro:

4 Times I think.

    F#                      E              D                  E
|-------------------------------------------------------------------------------------|
|-------------------------------------------------------------------------------------|
|-------------------------------------------------------------------------------------|
|-6-6-6-6-6-6--4-4-4--2-2-2-2-2-2--4-4-4----------------------------------------------|
|-6-6-6-6-6-6--4-4-4--2-2-2-2-2-2--4-4-4----------------------------------------------|
|-6-6-6-6-6-6--4-4-4--2-2-2-2-2-2--4-4-4----------------------------------------------|
--

End on Power D chord:


    D
|----------------------------------------------------------------------------------|
|----------------------------------------------------------------------------------|
|----------------------------------------------------------------------------------|
|2---------------------------------------------------------------------------------|
|2---------------------------------------------------------------------------------|
|2---------------------------------------------------------------------------------|
Suggest correction
Give kudos to tab author, rate the tab!
1 2 3 4 5
comments
print report bad tab
guest
You may want to rate the tab now too:
select rating
Please do not post tabs as comments. Select "correction" instead!