Oops, an error
Loading. Please wait.

Sunshine Type tab

1,063 views 27 this week
2 commentsread comments
1 2 3 4 5
x 4
add to favorites
×
Save as Personal and add changes to this tab that will be seen only by you. Learn more ›
×
You can save this tab as Personal to edit and correct it or add notes. All changes will be seen only by you. Learn more »
launch autoscroll
font size
0
reset
how to read this tab
guitar tuner
edit
Autoscroll
slow
fast
+/-
esc
set tempo
stop
About this tab version
Second single off of Turnover's upcoming album Good Nature. Was this info helpful? Yes No
Artist: Turnover
Song: Sunshine Type
Album: Good Nature
Track: 2

Tuning: Standard (E A D G B E)

Cover for reference: https://www.youtube.com/watch?v=kHK1ekuUEA8
Feel free to comment with questions

[Intro]
(Guitar 1)
E|--------14---|--------13---|
B|---12---12---|---11---11---|
G|---11--------|---11--------| (x8)
D|-------------|-------------|
A|-------------|-------------|
E|-------------|-------------|

(Guitar 2)
E|---14~--14~--|
B|-------------|
G|-------------| Strummed at beginning
D|-------------| Let ring while Guitar 1 plays twice through
A|-------------|
E|-------------|
 |
E|--------------|-----------------|-----------------|------------------------|
B|--14--14--14--|---------14------|--14-16--14------|---------14-------------|
G|--------------|--13-15------15--|-------------15--|--13-15------15-13--11--| (x3)
D|--------------|-----------------|-----------------|------------------------|
A|--------------|-----------------|-----------------|------------------------|
E|--------------|-----------------|-----------------|------------------------|

(Guitar 3) (Harmonizes with Guitar 2 on last play through)
E|--14------14--|---------14------|--14-16--14------|--14-16--14-------------|
B|--------------|-----16------16--|-------------16--|-------------16-----14--|
G|--------------|-----------------|-----------------|------------------------|
D|--------------|-----------------|-----------------|------------------------|
A|--------------|-----------------|-----------------|------------------------|
E|--------------|-----------------|-----------------|------------------------|

[Verse]
(Guitar 1)
E|--------14---|--------13---|
B|---12---12---|---11---11---|
G|---11--------|---11--------| (x4)
D|-------------|-------------|
A|-------------|-------------|
E|-------------|-------------|

(Guitar 2) (After Guitar 1 plays through twice)
E|-----------------------------|--------------------------------------------|
B|-----------------------------|--------------------------------------------|
G|---------11--------------11--|----------13-13-----15-15-----15-15-----11--|
D|--13--13------13--13--13-----|--13--13--------13--------13--------13------|
A|-----------------------------|--------------------------------------------|
E|-----------------------------|--------------------------------------------|
 |  .   .  .    .  .   .  .      .   .   .  .  .   .  .  .   .  .  .   .
E|-----------------------------|--------------------------------------------|
B|-----------------------------|--------------------------------------------|
G|---------11--------------11--|----------15-15-----13-13-----11-11-----11--|
D|--13--13------13--13--13-----|--13--13--------13--------13--------13------|
A|-----------------------------|--------------------------------------------|
E|-----------------------------|--------------------------------------------|
    .   .  .    .  .   .  .      .   .   .  .  .   .  .  .   .  .  .   . 

[Pre-Chorus]
(Guitar 1)
E|--------|--------|
B|---11~--|---11~--|
G|---11~--|---11~--|
D|--------|--------|
A|--------|--------|
E|--------|--------|

(Guitar 2)
E|----------|-------------------------|
B|----------|---------------14--------|
G|--(Rest)--|------15-13-15----13-15--|
D|----------|-------------------------|
A|----------|-------------------------|
E|----------|-------------------------|

[Chorus]
(Guitar 1)
E|--------14---|--------13---|
B|---12---12---|---11---11---|
G|---11--------|---11--------| (x4)
D|-------------|-------------|
A|-------------|-------------|
E|-------------|-------------|

(Guitar 2)
E|--------------|-----------------|-----------------|------------------------|
B|--14--14--14--|---------14------|--14-16--14------|---------14-------------|
G|--------------|--13-15------15--|-------------15--|--13-15------15-13--11--| (x2)
D|--------------|-----------------|-----------------|------------------------|
A|--------------|-----------------|-----------------|------------------------|
E|--------------|-----------------|-----------------|------------------------|

(Guitar 3) (Harmonizes with Guitar 2 on last play through)
E|--14------14--|---------14------|--14-16--14------|--14-16--14-------------|
B|--------------|-----16------16--|-------------16--|-------------16-----14--|
G|--------------|-----------------|-----------------|------------------------|
D|--------------|-----------------|-----------------|------------------------|
A|--------------|-----------------|-----------------|------------------------|
E|--------------|-----------------|-----------------|------------------------|

[Verse]

  Guitar 1
E|--------14---|--------13---|
B|---12---12---|---11---11---|
G|---11--------|---11--------| (x4)
D|-------------|-------------|
A|-------------|-------------|
E|-------------|-------------|

(Guitar 2)
E|-----------------------------|--------------------------------------------|
B|-----------------------------|--------------------------------------------|
G|---------11--------------11--|----------13-13-----15-15-----15-15-----11--|
D|--13--13------13--13--13-----|--13--13--------13--------13--------13------|
A|-----------------------------|--------------------------------------------|
E|-----------------------------|--------------------------------------------|
 |  .   .  .    .  .   .  .      .   .   .  .  .   .  .  .   .  .  .   .
E|-----------------------------|--------------------------------------------|
B|-----------------------------|--------------------------------------------|
G|---------11--------------11--|----------15-15-----13-13-----11-11-----11--|
D|--13--13------13--13--13-----|--13--13--------13--------13--------13------|
A|-----------------------------|--------------------------------------------|
E|-----------------------------|--------------------------------------------|
    .   .  .    .  .   .  .      .   .   .  .  .   .  .  .   .  .  .   . 

[Bridge]
(Guitar 1)
E|--------|--------|---13~--|---13~--|--------|---13~--|
B|---11~--|---11~--|---9~---|---9~---|---11~--|---9~---|
G|---11~--|---11~--|---11~--|---11~--|---11~--|---11~--|
D|--------|--------|--------|--------|--------|--------|
A|--------|--------|--------|--------|--------|--------|
E|--------|--------|--------|--------|--------|--------|

(Guitar 2)
E|-----14--|------------------|--------|--------|-----14--|--------|
B|--14-----|--14-14-14-14-----|--------|--------|--14-----|--------|
G|---------|--------------15--|---13~--|---13~--|---------|---13~--|
D|---------|------------------|--------|--------|---------|--------|
A|---------|------------------|--------|--------|---------|--------|
E|---------|------------------|--------|--------|---------|--------|

[Pre-Chorus]
(Guitar 1)
E|--------|---13~--|
B|---11~--|---11~--|
G|---11~--|--------| (x4)
D|--------|--------|
A|--------|--------|
E|--------|--------|

(Guitar 2)
E|-----------------------------|--------------------------------------------|
B|-----------------------------|--------------------------------------------|
G|---------11--------------11--|----------13-13-----15-15-----15-15-----11--|
D|--13--13------13--13--13-----|--13--13--------13--------13--------13------|
A|-----------------------------|--------------------------------------------|
E|-----------------------------|--------------------------------------------|
 |  .   .  .    .  .   .  .      .   .   .  .  .   .  .  .   .  .  .   .      (x2)
E|-----------------------------|--------------------------------------------|
B|-----------------------------|--------------------------------------------|
G|---------11--------------11--|----------15-15-----13-13-----11-11-----11--|
D|--13--13------13--13--13-----|--13--13--------13--------13--------13------|
A|-----------------------------|--------------------------------------------|
E|-----------------------------|--------------------------------------------|
    .   .  .    .  .   .  .      .   .   .  .  .   .  .  .   .  .  .   . 

[Chorus]
(Guitar 1)
E|--------14---|--------13---|
B|---12---12---|---11---11---|
G|---11--------|---11--------| (x8)
D|-------------|-------------|
A|-------------|-------------|
E|-------------|-------------|
 |
E|--------|
B|---11~--|
G|---11~--|
D|--------|
A|--------|
E|--------|

(Guitar 2)
E|--------------|-----------------|-----------------|------------------------|
B|--14--14--14--|---------14------|--14-16--14------|---------14-------------|
G|--------------|--13-15------15--|-------------15--|--13-15------15-13--11--| (x4)
D|--------------|-----------------|-----------------|------------------------|
A|--------------|-----------------|-----------------|------------------------|
E|--------------|-----------------|-----------------|------------------------|

(Guitar 3) (Harmonizes with Guitar 2 on last two play throughs)
E|--14------14--|---------14------|--14-16--14------|--14-16--14-------------|
B|--------------|-----16------16--|-------------16--|-------------16-----14--|
G|--------------|-----------------|-----------------|------------------------| (x2)
D|--------------|-----------------|-----------------|------------------------|
A|--------------|-----------------|-----------------|------------------------|
E|--------------|-----------------|-----------------|------------------------|


*************************

|  .    palm mute
|  ~    sustain

*************************

            
            
Suggest correction
Creating personal tab
Creating personal tab
You can edit any tab online and save it as your Personal.

You can edit, replace or remove any tab part or add personal notes – all changes will be seen only by you.

Personal tabs can be accessed anytime from any device, even offline.
Learn more »
comments
print report bad tab
2 comments total.
+1 reply
drewhelt 10 Aug 31, 2017 10:28 AM

intro sounds accurate to me

0 reply
AsILayDying504 1,208 Sep 01, 2017 12:54 AM

You heard the man!

guest
You may want to rate the tab now too:
select rating
Wanna post a correction for this tab? Suggest correction