Oops, an error
Loading. Please wait.

7 And 7 Chords

35,336 views 141 this week
3 commentsread comments
1 2 3 4 5
x 39
add to favorites
launch autoscroll
font size
0
reset
transpose
0
reset
simplify chords
display chords
guitar tuner
Autoscroll
slow
fast
+/-
esc
set tempo
stop
Help us to improve Ultimate-Guitar.com Take our survey!
×
Author
Difficulty
Capo
novice
2nd fret
ARTIST: Turnpike Troubadours
SONG: 7 & 7

Tabbed by: hoxxx
Check out my band: www.bluebookband.net
---------------------------------------

RHYTHM:
Capo on the 2nd fret.

SOLO-GUITAR:
No capo!

CHORD PATTERNS
--------------
G       320033
D       xx0232
Am      x02210
C/B     x20010
C       x32010
Em      022000
G/F#    2x0233
--------------


[INTRO] GUITAR SOLO
                G        D      Am   C/B C
e-|-----------|---------------|----------------------|-
B-|-----------|---------------|----------------------|-
G-|-----------|---------------|----------------------|-
D-|-----------|---------------|----------------------|-
A-|-----------|---------------|-/9---7---5--5-4------|-
E-|-------4/7\|-5----4\2\0----|-----------------7-4/-|-

   G         D      Am     C/B    C
e-|---------------|-------------------------------|-
B-|---------------|-------------------------------|-
G-|---------------|----------------7-9-7---7--9-7-|-
D-|---------------|-------------7--------9--------|-
A-|---------------|---4-7-4-7-9-------------------|-
E-|-5----4\2\0----|-7-----------------------------|-

   G                D   Am  C/B C
e-|------12.-------------|---------------------------------------|-
B-|----------10----------|---------------------------------------|-
G-|----------------(9)---|---------------------------------------|-
D-|-11b---------11-(9)---|-9h11h12-11----9------12.--9----9------|-
A-|----------------(7)---|------------12---12-9--------12---12-9-|-
E-|----------------------|---------------------------------------|-

    G        D       Am  C/B  C
e-|---------------|------------------|-
B-|---------------|------------------|-
G-|---------------|----------(7)-----|-
D-|---------------|----------(7)-----|-
A-|---------------|-/9---7---(5)-----|-
E-|-5----4\2\0----|------------------|-


[VERSE]
G             D    Am       C/B     C          G
    Back when you, when you were my darling
         D       Am     C/B    C        G
I didn't mind to lose a little sleep
         D       Am   C/B    C        G
I didn't mind to do a little walkin
      D          Am         C/B     C 
Reputation never meant that much to me


Em           D         C            G  G/F#  Em   
    How do I find that old familiar feeling?
         D             C          G  G/F#  Em
One that carried me so many years ago
        D           C            G  G/F#  Em
Fun was dominos and seven up and Seagram's
           D                C
Thing were simple then just movin nice and slow


[PRE-CHORUS]
         Am           C/B   C
Ain't it strange?
               Am           C/B   C         
Well, ain't it strange?


[CHORUS]
G              D        Am     C/B    C         G    
    Well I had no clue, I'd... be the boy who
           D          Am     C/B    C         G   
Your momma warned you about
           D        Am     C/B    C         G   
Well I had no clue, I'd... be the boy who
           D                    
Your momma warned you about


[GUITAR SOLO]
     Am  C/B C
e-|-----------------------|-
B-|-----------------------|-
G-|-----------------------|-
D-|-----------------------|-
A-|--9---7---5---5-4------|-
E-|------------------7-4/-|-

    G        D      Am   C/B C
e-|---------------|----------------------|-
B-|---------------|----------------------|-
G-|---------------|----------------------|-
D-|---------------|----------------------|-
A-|---------------|-/9---7---5--5-4-5----|-
E-|-5----4\2\0----|-------------------7/-|-

    G        D      Am      C/B       C
e-|---------------|------------------------------------|-
B-|---------------|------------------------------------|-
G-|---------------|------------------------------------|-
D-|---------------|-----7.--11-9----9------------------|-
A-|---------------|-7-9----------12---12-9-12---9-12-9-|-
E-|-5----4\2\0----|------------------------------------|-


[VIOLIN SOLO]
G       D       Am  C/B C
G       D       Am  C/B C


[VERSE]
G                  D       Am     C/B    C        G 
    Well, that old seen is always coming to me
          D                 Am      C/B      C        G
I see you standin with your husband and your child
           D            Am        C/B       C        G 
And you're a picture of strength, grace and beauty
                  D         Am    C/B    C       
And me I'm just a fool in a super market aisle


Em               D           C            G  G/F#  Em
    Well I know, hello would surly end up awkward
        D                 C          G  G/F#  Em        
I never had the knack for talkin any way
               D        C            G  G/F#  Em
You're not the kind for bending over backwards
                  D             C
Smile and turn my shopping cart around and walk away


[PRE-CHORUS]
         Am           C/B   C
Ain't it strange?
               Am           C/B   C         
Well, ain't it strange?


[CHORUS]
G              D        Am     C/B    C         G    
    Well I had no clue, I'd... be the boy who
           D          Am     C/B    C         G   
Your momma warned you about
           D        Am     C/B    C         G   
Well I had no clue, I'd... be the boy who
           D          Am       
Your momma warned you about


[GUITAR SOLO]


CHORDS
Am  C/B  C     G     D
Am  C/B  C     G     D

e-|-------------------------------|-------------------------------------|-
B-|-------------------------------|-------------------------------------|-
G-|---------------------------7-9-|---7-9---7-9---7-9---7-9---7-9---7-9-|-
D-|-------------7.----7-9.--9-----|-9-----9-----9-----9-----9-----9-----|-
A-|-----7---7-9-----9-------------|-------------------------------------|-
E-|-7-9---9-----------------------|-------------------------------------|-

e-|----------------------------------|------------------------------|
B-|-10b----10p8---8----10b-10b~--8---|------------------------------|
G-|-------------9---9--------------9-|-9-7---7----------------------|
D-|----------------------------------|-----9---9----9-7-------------|
A-|----------------------------------|------------------9-7-5-------|
E-|----------------------------------|------------------------7-5---|


[VIOLIN SOLO]
Am  C/B  C     G     D
Am  C/B  C     G     D


[BREAK]
         G                 D                  Am    C/B   C
Ain't it stange how well I knew you back when I was 17
G             D             Am    C/B    C
Lovin you was easy baby but I was just a child
          G             D               Am   C/B   C
And these days you aint nothing just an interstate daydream
G          D               Am   C/B    C
Folks were sleeping and we were runnin wild


[PRE-CHORUS]
Am                         C
And I still do my share of sleeping on the floor
Am                        C
Not sure if anybody knows me anymore


[CHORUS]
G              D        Am     C/B    C         G    
    Well I had no clue, I'd... be the boy who
           D          Am     C/B    C         G   
Your momma warned you about
           D        Am     C/B    C         G   
Well I had no clue, I'd... be the boy who
           D          Am       
Your momma warned you about



************************************

| (n)  Ghost note
| h    Hammer-on
| p    Pull-off
| b    Bend
| /    Slide up
| \    Slide down 

************************************
Suggest correction
comments
print report bad tab
3 comments total.
0 reply
scorpio1970 10 Jan 30, 2013 12:46 AM

very cool....

0 reply
wh_wendland 130 Oct 03, 2014 11:25 AM

well done.

0 reply
BigCountry68 10 Feb 24, 2015 09:59 PM

I think the intro is something like this. Having trouble coming up with the rest.

e-|-----------|---------------|----------------------------|-
B-|-----------|---------------|----------------------------|-
G-|-----------|---------------|----------------------------|-
D-|-----------|---------------|4--2--0--0------------------|-
A-|2\3\2-0-0--|-0-------------|-----------3\2---0----------|-
E-|-----------|---2h4-0-------|---------------4----4\2\0---|-

guest
You may want to rate the tab now too:
select rating
Wanna post a correction for this tab? Suggest correction