Oops, an error
Loading. Please wait.

Christmas Is My Time Of Year bass

by Turtles
25 views 1 this week
no commentswrite comment
1 2 3 4 5
3 more votes to show rating
add to favorites
×
Save as Personal and add changes to this tab that will be seen only by you. Learn more ›
×
You can save this tab as Personal to edit and correct it or add notes. All changes will be seen only by you. Learn more »
launch autoscroll
font size
0
reset
guitar tuner
edit
Autoscroll
slow
fast
+/-
esc
set tempo
stop
Author
Difficulty
Tabbed by: 6METAL6BASSIST6
E-mail: petergriffinav@gmail.com

Tuning: EADG

0:08

G|------------------------------4-----------------------------------------------------------------|
D|------------------5-----------------7-----4-----5-----5-----5-----5-----5-----------------------|
A|3-----5-----7-----------5---------------------------------5-----5-----5-------6-----------------|
E|------------------------------------------------------------------------------------------6-----|

G|------------------------------------------------------------------------------------------------|
D|------------------------------------------------------------------------8-----8-----8---6-3-----|
A|3-----5-----7-----6-----5-----3-----2-----------6-----6-----6-----6---------------8-------------|
E|------------------------------------------5---------------6-----6-----6-------------------------|

G|------------------------------------------------|
D|5-----5-----5-----5-----5-----5-----5-----------|
A|----------5-----------5-----5-----5-----5-------|
E|------------------------------------------------|

0:25

G|------------------------------------------------------------------------------------------------|
D|------------------------------------------------------------------------------------------------|
A|------------------------------------------------------------------------------------------------|
E|3-----3-----3-----3-----3-----3-----3-----3-----3-----3-----3-----3-----3-----3-----3-----3-----|

G|------------------------------------------------------------------------------------------------|
D|3-----2-----------2-----------------------------------------------------------------------5-----|
A|------------5-----------3-----2-----------2---------------------------------------------5-----5-|
E|------------------------------------5-----------3-----3-----3-----3-----3-----3-----3-----------|

0:40

G|------------------------------------------------------------------------------------------------|
D|5-----5-----5-----5-----5-----5-----5-----5-----------------------------------------------------|
A|----------5-----------5-----------5-----5-------------------------------------------------------|
E|------------------------------------------------3-----3-----3-----3-----3-----3-----5-----5-----|

G|------------------------------------------------------------------------------------------------|
D|------------------------------------------------------------------------------------------------|
A|2-----2-----3-----3-----5-----5-----5-----5-----------3---------3-------------------------------|
E|----------------------------------5-----5-----5-------------------------3-----------------------|

0:55

G|------------------------------4-----------------------------------------------------------------|
D|------------------5-----------------7-----4-----5-----5-----5-----5-----5-----------------------|
A|3-----5-----7-----------5---------------------------------5-----5-----5-------6-----------------|
E|------------------------------------------------------------------------------------------6-----|

G|------------------------------------------------------------------------------------------------|
D|------------------------------------------------------------------------8-----8-----8---6-3-----|
A|3-----5-----7-----6-----5-----3-----2-----------6-----6-----6-----6---------------8-------------|
E|------------------------------------------5---------------6-----6-----6-------------------------|

G|------------------------------------------------|
D|5-----5-----5-----5-----5-----5-----5-----------|
A|----------5-----------5-----5-----5-----5-------|
E|------------------------------------------------|

1:13

G|------------------------------------------------------------------------------------------------|
D|------------------------------------------------------------------------------------------------|
A|------------------------------------------------------------------------------------------------|
E|3-----3-----3-----3-----3-----3-----3-----3-----3-----3-----3-----3-----3-----3-----3-----3-----|

G|------------------------------------------------------------------------------------------------|
D|3-----2-----------2-----------------------------------------------------------------------5-----|
A|------------5-----------3-----2-----------2---------------------------------------------5-----5-|
E|------------------------------------5-----------3-----3-----3-----3-----3-----3-----3-----------|

1:27

G|------------------------------------------------------------------------------------------------|
D|5-----5-----5-----5-----5-----5-----5-----5-----------------------------------------------------|
A|----------5-----------5-----------5-----5-------------------------------------------------------|
E|------------------------------------------------3-----3-----3-----3-----3-----3-----5-----5-----|

G|------------------------------------------------------------------------------------------------|
D|------------------------------------------------------------------------------------------------|
A|2-----2-----3-----3-----5-----5-----5-----5-----------3---------3-------------------------------|
E|----------------------------------5-----5-----5-------------------------3-----------------------|

1:41

G|------------------------------4-----------------------------------------------------------------|
D|------------------5-----------------7-----4-----5-----5-----5-----5-----5-----------------------|
A|3-----5-----7-----------5---------------------------------5-----5-----5-------6-----------------|
E|------------------------------------------------------------------------------------------6-----|

G|------------------------------------------------------------------------------------------------|
D|------------------------------------------------------------------------8-----8-----8---6-3-----|
A|3-----5-----7-----6-----5-----3-----2-----------6-----6-----6-----6---------------8-------------|
E|------------------------------------------5---------------6-----6-----6-------------------------|

G|------------------------------------------------|
D|5-----5-----5-----5-----5-----5-----5-----------|
A|----------5-----------5-----5-----5-----5-------|
E|------------------------------------------------|

2:00

G|------------------------------------------------------------------------------------------------|
D|------------------------------------------------------------------------------------------------| x2
A|------------------------------------------------------------------------------------------------|
E|3-----3-----3-----3-----3-----3-----3-----3-----3-----3-----3-----3-----3-----3-----3-----3-----|

2:15

G|------------------------------------------------------------------------------------------------|
D|5-----5-----5-----------5-----5-----5-----5-----5-----5-----5-----5-----5-----5-----------------|
A|----------5-----------5-----5-----5-----------5-----------5-----------5-----5-----5-------------|
E|------------------3-----------------------------------------------------------------3-----3-----|

G|------------------------------------------------------------------------------------------------|
D|------------------------------------5-----5-----------------------------------------5-----5-----|
A|----------------------------------5-----5-----5-----------------------------------5-----5-----5-|
E|3-----3-----3-----3-----3-----3-----------------3-----3-----3-----3-----3-----3-----------------|

G|------------------------------------------------------------------------|
D|------------------------5-----------------------------------------------|
A|------------------------------------------------------------------------|
E|3-----3-----3-----3-----------------------------------------------------|

2:35

G|------------------------------4-----------------------------------------------------------------|
D|------------------5-----------------7-----4-----5-----5-----5-----5-----5-----------------------|
A|3-----5-----7-----------5---------------------------------5-----5-----5-------6-----------------|
E|------------------------------------------------------------------------------------------6-----|

G|------------------------------------------------------------------------------------------------|
D|------------------------------------------------------------------------8-----8-----8---6-3-----|
A|3-----5-----7-----6-----5-----3-----2-----------6-----6-----6-----6---------------8-------------|
E|------------------------------------------5---------------6-----6-----6-------------------------|

G|------------------------------------------------|
D|5-----5-----5-----5-----5-----5-----5-----------|
A|----------5-----------5-----5-----5-----5-------|
E|------------------------------------------------|

2:52 Until fadeout.

G|------------------------------------------------------------------------------------------------|
D|------------------------------------------------------------------------------------------------|
A|------------------------------------------------------------------------------------------------|
E|3-----3-----3-----3-----3-----3-----3-----3-----3-----3-----3-----3-----3-----3-----3-----3-----|

            
            
Suggest correction
Creating personal tab
Creating personal tab
You can edit any tab online and save it as your Personal.

You can edit, replace or remove any tab part or add personal notes – all changes will be seen only by you.

Personal tabs can be accessed anytime from any device, even offline.
Learn more »
Give kudos to tab author, rate the tab!
1 2 3 4 5
comments
print report bad tab
guest
You may want to rate the tab now too:
select rating
Wanna post a correction for this tab? Suggest correction