Oops, an error
Loading. Please wait.

Aire Chords

28 views 6 this week
no commentswrite comment
1 2 3 4 5
3 more votes to show rating
add to favorites
launch autoscroll
font size
0
reset
transpose
0
reset
display chords
guitar tuner
×
Best way to learn
"Aire"
Autoscroll
slow
fast
+/-
esc
set tempo
stop
INTRO: E B A
SE TOCA CUATRO VECES UNA EN CADA ACORDE
E---------------------------|
B---------------------------|
G--9----8----8----8--11-9-8-|
D---9-9--9-9--9--9-9-------9|
A---------------------------|
E---------------------------|
EN LA ULTIMA LLEVA ESTO DE MAS
E---------------------------|
B---------------------------|
G--9----8----8----8--11-9-8-9
D---9-9--9-9--9--9-9-------9|
A---------------------------|
E---------------------------|


E
Me refugio en tu bolsillo
B
Te persigo bajo tu ropa
A
Examino todo tu cuerpo
B
Doy un salto y salto a tu boca

E
Tu me escondes entre tus labios
B
Pero yo me agarro a tu pelo
A
Voy trepando por tu camisa
B
hasta el cielo

             E    B
soy como el aire haha
             E    B
soy como el aire haha
          C#
pegado a ti
         B        A  B
siguiéndote al andar

                         E    B
por que te juro que soy aire haha
             E    B
soy como el aire haha
           C#
pegado a ti
       B      A   B
no puedes escapar

INTRO:E B A

E
Voy jugando entre tus dedos
B
Me acuesto sobre tu cama
A
y me filtro bajo tu perta
B
O me cuelo por la ventana

E
Tu me escondes entre tus labios
B
Pero yo me agarro a tu pelo
A
Voy trepando por tu camisa
B
hasta el cielo

              E    B
soy como el aire haha
             E    B
soy como el aire haha
          C#
pegado a ti
         B        A  B
siguiéndote al andar

                         E    B
por que te juro que soy aire haha
             E    B
soy como el aire haha
           C#
pegado a ti
       B      A   B
no puedes escapar

PUENTE MUSICAL

E B E A
SE REPITE CUATRO VECES UNA EN CADA ACORDE

E---------------|
B---------------|
G-9----8--11-9-8|
D--9--9-9-------|
A---------------|
E---------------|

esta es la ultima de las cuatro y se agrega algo chequenlo

E-----------------|
B-----------------|
G-9----8--11-9-8-9|
D--9--9-9---------|
A-----------------|
E-----------------|

E
AIRE HAA
             B
SOY COMO EL AIRE HAA
           C#
PEGADO A TI
      B          A   B
SIGUIENDOTE AL ANDAR

                         E      B
POR QUE TE JURO QUE SOY AIRE HAHA
             E     B
SOY COMO EL AIRE HAAA
           C#
PEGADO A TI

FIANL:
    B          A B    E
NO PUEDES ESCAPAR

  CUALQUIER CORRECION A MO CORREO OK
BYE
Suggest correction
Give kudos to tab author, rate the tab!
1 2 3 4 5
comments
print report bad tab
guest
You may want to rate the tab now too:
select rating
Wanna post a correction for this tab? Suggest correction