Oops, an error
Loading. Please wait.

Birthday Card tab

version 3
version 3

Whole song

Interactive

by Tweak
173 views 1 this week
no commentswrite comment
1 2 3 4 5
2 more votes to show rating
add to favorites
×
Save as Personal and add changes to this tab that will be seen only by you. Learn more ›
×
You can save this tab as Personal to edit and correct it or add notes. All changes will be seen only by you. Learn more »
launch autoscroll
font size
0
reset
how to read this tab
guitar tuner
edit
Autoscroll
slow
fast
+/-
esc
set tempo
stop
Difficulty
ARTIST: Tweak
ALBUM: Romantic Lure of Possum Worship
Song: Birthday Card
TAB BY: Timothy Kohler
INTRO RIFF (WITH DISTORTION)
E|----------------------------------------|
B|----------------------------------------|
G|--2--2-2------------------------5--5-5--|
D|--2--2-2----3--3-3----5--5-5----5--5-5--|                X3
A|------------3--3-3----5--5-5----3--3-3--|
E|------------1--1-1----3--3-3------------|
      - Yeah Yeah….
POST VERSE
E|---------------------------------------------------------------------------|
B|---------------------------------------------------------------------------|
G|------------------------------------------------------------------------5--|       X1
D|-3-3-3-3-3-3-3-3-3-3-3-3-3-3-3-3----5-5-5-5-5-5-5-5-----5------------------|
A|-3-3-3-3-3-3-3-3-3-3-3-3-3-3-3-3----5-5-5-5-5-5-5-5-----3------------------|
E|--1-1-1-1-1-1-1-1-1-1-1-1-1-1-1-1---3-3-3-3-3-3-3-3------------------------|
PM  * * * * * * * * * * * * * * * * * *     * * * * * * * *
INTRO- VERSE (WITHOUT DISTORTION)
E|-------------------------------------------------------------|
B|-------------------------------------------------------------|
G|--5-5-------------------------------------5-5----------------|      X1
D|--5-5---7-7---5-5-----X-X-X-X----5--7-----5-5----7-7----5-5--|
A|--3-3---7-7---5-5-----X-X-X-X----5--7-----3-3----7-7----5-5--|
E|-------5-5----3-3----X-X-X-X-----3--5------------5-5----3-3--|


E|-------------------------------------------------------------------|
B|-------------------------------------------------------------------|
G|-----------------------------5-5-----------------------------------|
D|-----------------------------5-5---7-7----5-5----X-X-X-X-----7--5--|           X4
A|-----------------------------3-3---7-7----5-5----X-X-X-X-----7--5--|
E|-----------------------------------5-5----3-3----X-X-X-X-----5--3--|
I wanne thank you for the birthday card…

PRE CHORUS

E|--------------------------------------------|
B|--------------------------------------------|
G|-----------------------------------------5--|
D|--3---3-5---5-5---------3---3-5-----3----5--|
A|--3---3-5---5-5---------3---3-5------3---3--|
E|--1---1-3---3-5---------1---1-3------1------|

E|------------------------------------------------------------------------|
B|------------------------------------------------------------------------|
G|------------------------------------------------------------------------|
D|--3-3-3-3-3-3-3-3--5-5-5-5-5-5-5-5--------------------------------------|
A|--3-3-3-3-3-3-3-3--5-5-5-5-5-5-5-5--------------------------------------|
E|--1-1-1-1-1-1-1-1--3-3-3-3-3-3-3-3--------------------------------------|
PM * * * * * * * * *   * * * * * * * * *

 CHORUS

E|----------------------------------------|
B|----------------------------------------|
G|--2--2-2------------------------5--5-5--|
D|--2--2-2----3--3-3----5--5-5----5--5-5--|                X3
A|------------3--3-3----5--5-5----3--3-3--|
E|------------1--1-1----3--3-3------------|

POST CHORUS

E|-----------------------------------------------------------|
B|-----------------------------------------------------------|
G|--------------------------------------------------------5--|       X1
D|-3-3-3-3-3-3-3-3-3-3-3-3-3-3-3-3----5-5-5-5-5-5-5-5-----5--|
A|-3-3-3-3-3-3-3-3-3-3-3-3-3-3-3-3----5-5-5-5-5-5-5-5-----3--|
E|--1-1-1-1-1-1-1-1-1-1-1-1-1-1-1-1---3-3-3-3-3-3-3-3--------|
PM  * * * * * * * * * * * * * * * * * *     * * * * * * * *

RIFF (WITH DISTORTION)

E|-------------------------------------------------------------|
B|-------------------------------------------------------------|
G|--5-5-------------------------------------5-5----------------|      X1
D|--5-5---7-7---5-5-----X-X-X-X----5--7-----5-5----7-7----5-5--|
A|--3-3---7-7---5-5-----X-X-X-X----5--7-----3-3----7-7----5-5--|
E|--------5-5---3-3-----X-X-X-X----3--5------------5-5----3-3--|

VERSE

E|-------------------------------------------------------------------|
B|-------------------------------------------------------------------|
G|--5-5-5-----------------------------------------5-5----------------|
D|--5-5-5---7-7-7---5-5-----X-X-X-X----5-5-7-7----5-5----7-7----5-5--|
A|--3-3-3---7-7-7---5-5-----X-X-X-X----5-5-7-7----3-3----7-7----5-5--|
E|----------5-5-5---3-3-----X-X-X-X----3-3-5-5-----------5-5----3-3--|
Pm *********************************************************************

|------------------------------------------|
|-------LAST PART--------------------------|
|---5-5-5----------------------------------|      X1
|---5-5-5---7-7-7----5--5---5--5-5---------|
|---3-3-3---7-7-7----5--5---5--5-5---------|
|-----------5-5-5----3--3---3--3-3---------|
PM *************

CHORUS X3
POST CHORUS X1
RIFF (WITHOUT DISTORTION) X2
VERSE 3(SAME AS VERSE 1) X4
PRE CORUS X1 (2ND PART WITHOUT PALM MUTE)
CHORUS X3

POST CHORUS 2

E|-------------------------------------------------------------------------|
B|-------------------------------------------------------------------------|
G|---------------------------------------------------------------------5---|
D|--3-3----3---3-3----3-----3-3----3---3-3---3----5-5----5----5-5--5---5---|
A|--3-3----3---3-3----3-----3-3----3---3-3---3----5-5----5----5-5--5---3---|
E|--1-1----1---1-1----1-----1-1----1---1-1---1----3-3----3----3-3--3-------|
PM  * *        * *          * *        * *        * *         * *      *

BRIDGE

E|--------------------------------------------------------------------|
B|--------------------------------------------------------------------|
G|---------5-------5------5-----5---5---5-----------------------------|   X2
D|--------------------------------------------------------------------|
A|---3-3-----3-3----3-3----3-3----3---3-------------------------------|
E|--------------------------------------------------------------------|
PM  * *      * *    * *    * *    *   *

E|--------------------------------------------------------------------------|
B|--------------------------------------------------------------------------|
G|---5-5-5----7-7-7---9-9-9----10---9--7------------------------------------|   X3
D|--------------------------------------------------------------------------|
A|---3-3-3----5-5-5---7-7-7----8----7--5------------------------------------|
E|--------------------------------------------------------------------------|

PRE CHORUS
RIFF X5
END OF SONG :) ENJOY..
Suggest correction
Creating personal tab
Creating personal tab
You can edit any tab online and save it as your Personal.

You can edit, replace or remove any tab part or add personal notes – all changes will be seen only by you.

Personal tabs can be accessed anytime from any device, even offline.
Learn more »
Give kudos to tab author, rate the tab!
1 2 3 4 5
comments
print report bad tab
guest
Wanna post a correction for this tab? Suggest correction