Oops, an error
Loading. Please wait.

Fear Tab

2,281 views 15 this week
3 commentsread comments
1 2 3 4 5
accurate
x 4
add to favorites
launch autoscroll
font size
0
reset
how to read this tab
guitar tuner
Autoscroll
slow
fast
+/-
esc
set tempo
stop
Help us to improve Ultimate-Guitar.com Take our survey!
×
Author
Difficulty
Tuning
novice
D A D G B E
Tuning: Drop D

h = hammer on

This is my first tab and I  just figured out the intro.. Let me know what you think.


E |---------------2------2p0------------------------------------------------|
B |---------------3----------3--------------------3--3----------------------|
G |---------------2-------------------------------2----0h2------------------|
D |-0----0----------------------------------------0-------------------------|
A |-0----0------------------------------------------------------------------|
D |-0----0---------------------------3----3---------------------------------|

E |-------------------------------------------------------------------------|
B |-------------3--3-----------------------3--3---------------------------- |
G |-------------2----0h2-------------------2----0h2-------------------------|
D |-------------0--------------------------0--------------------------------|
A |-------------------------------------------------------------------------|
D |-2----2---------------------1----1---------------------------------------|

http://www.twelvefootninja.com/

^--Link to the band's website.
Suggest correction
comments
print report bad tab
3 comments total.
0 reply
ragegamr 10 wrote on January 14 2014, 07:21 pm

Im not too sure about the part after the 3----3

----------
-3--3-----
-2----0h2-
-0--------
----------
----------
however the rest is perfect! Nice job!

0 reply
veentoo 10 wrote on June 22 2014, 12:44 pm

For me the beginning looks like

E |---------------2------2--------------------------------------------------|
B |---------------3---------5p3-------------------3--3----------------------|
G |---------------2-------------------------------2----0h2------------------|
D |-0----0----------------------------------------0-------------------------|
A |-0----0------------------------------------------------------------------|
D |-0----0---------------------------3----3---------------------------------|

0 reply
veentoo 10 wrote on June 22 2014, 12:44 pm

For me the beginning looks like

E |---------------2------2--------------------------------------------------|
B |---------------3---------5p3-------------------3--3----------------------|
G |---------------2-------------------------------2----0h2------------------|
D |-0----0----------------------------------------0-------------------------|
A |-0----0------------------------------------------------------------------|
D |-0----0---------------------------3----3---------------------------------|

guest
You may want to rate the tab now too:
select rating
Please do not post tabs as comments. Select "correction" instead!