Oops, an error
Loading. Please wait.

10 Years Tab

518 views 1 this week
no commentswrite comment
1 2 3 4 5
please rate
add to favorites
launch autoscroll
font size
0
reset
how to read this tab
guitar tuner
Autoscroll
slow
fast
+/-
esc
set tempo
stop
Help us to improve Ultimate-Guitar.com Take our survey!
×
Author
Difficulty
10 YEARS
TwentyForSeven
Rhythm:
e------------------------------------|
B------------------------------------|
G---4----------------4---------------|
D---4----------------4---------------|(Let it ring)
A---2----------------2---------------|
E------------------------------------|
same for intro and bridge interlude
e------------------------------------|
B------------------------------------|
G---4--------------------------------|
D---4---4---6---2--------------------|
A---2---4---6---2--------------------|
E-------2---4---0--------------------|

same for verse and chorus

Lead:
e-------------------------------------------------------------|
B--------4-----5------7-----5-----4--------2-----2--2---------|
G---4-4---4-4---4-4---4-4--4-4------4-4--4--4--4--------------|
D-------------------------------------------------------------|
A-------------------------------------------------------------|
E-------------------------------------------------------------|
Lyrics
V1:
And everything you ever told me
I guess its something that you couldn't see
The way you walked away
You just decided that you couldn't stay
And now your all alone
You talk to her on the telephone
You say your satisfied
You walk away and you say you tried

Chorus:
10 years since you've been around
Now she's in your life you hit the ground
You were wrong
You cried
You turned away
You lied
You think you're so cool
With your schedule
Your Turning plans down
Now you're not around

Verse 2:

And Every day of the week
Her times the only thing you seek
She makes me happy you say
This just happens every single day
when i call your phone
it seems your voice has a different tone
Your losing all your friends
This is how the story ends

www.myspace.com/lookingtothesummer
Suggest correction
Give kudos to tab author, rate the tab!
1 2 3 4 5
comments
print report bad tab
guest
You may want to rate the tab now too:
select rating
Wanna post a correction for this tab? Suggest correction