Oops, an error
Loading. Please wait.

Just Too Late Tab

119 views 1 this week
no commentswrite comment
1 2 3 4 5
please rate
add to favorites
launch autoscroll
font size
0
reset
how to read this tab
guitar tuner
Tab Pro tools
  • play this tab
  • loop segment
  • change instrument
  • show fretboard
  • metronome
×
Best way to learn
"Just Too Late"
Autoscroll
slow
fast
+/-
esc
set tempo
stop
Contributor
Difficulty
Capo
novice
1st fret
Just Too Late
TwentyForSeven
(Capo on the 1st Fret)

Rhythm

Intro/ Outro

e --1----1-----1----1----------------------------|
B--1----1-----1----1-----------------------------|
G--10--7-----9-----7-----------------------------|
D--10--8-----10----8-----------------------------|
A--8----8----10----8-----------------------------|
E—1----6----8------6-----------------------------|

Verse

e---------------------------------------|
B---------------------------------------|
G---10----------------------------------|
D---10-------8--------------------------|
A---8--------8--------------------------|
E-------------6-------------------------|

PreChorus

e----------------------------------------|
B---6-8-10-11-10-8-6---------------------|
G----------------------------------------|
D----------------------------------------|
A----------------------------------------|
E----------------------------------------|
Chorus

e-----------------------------------------|
B-----------------------------------------|
G---10------------------------------------|
D---10-------8-----10----8----------------|
A----8-------8-----10-----8---------------|
E-------------6-----8------6--------------|

Lead:

Intro/ Outro

e --1----1-----1----1--------------------------|
B--1----1-----1----1---------------------------|
G--10--7-----9-----7---------------------------|
D--10--8-----10----8---------------------------|
A--8----8----10----8---------------------------|
E—1----6----8------6---------------------------|

Verse

e--------------------------------------|
B--------------------------------------|
G---10---------------------------------|
D---10-------8-------------------------|
A---8--------8-------------------------|
E-------------6------------------------|
PreChorus

e----------------------------------------|
B---10-11-13-15-13-11-10-----------------|
G----------------------------------------|
D----------------------------------------|
A----------------------------------------|
E----------------------------------------|

Chorus

e-----------------------------------------|
B-----------------------------------------|
G---10------------------------------------|
D---10-------8-----10----8----------------|
A----8-------8-----10-----8---------------|
E-------------6-----8------6--------------|

Solo

Lead:

e----------------------------------------------------------------------------------|
B----------------------------------------------------------------------------------|
G----------------------------------------------------------------------------------|
D---------10-10-10-7----------7-------------------10-10-10-7---------7-------------|
A--8-8-8----------------10-10----10-8----8-8-8----------------10-10----10-8-8-8----|
E----------------------------------------------------------------------------------|

-----------------------|
-----------------------|
-----------------------|
-----------------------|
13-12-8-8-8-13-12-8----|
-----------------------|

e-------------------------------------------------------------------|
B-------------------------------------------------------------------|
G-------------------------------------------------------------------|
D-------------------------------------------------------------------|
A-------------------------------------------------------------------|
E—8-8-8-10-10-10-10-10-10-12-8--------------------------------------|

e----------------------------------------------------------------------------|
B----------------------------------------------------------------------------|
G----------------------------------------------------------------------------|
D-----------17-17-17-15-14-14-14-14-15---17-17-17-15-14-14-14-14-1-17-15-12--|
A---15-15----------------------------15-15----------------------15-15--------|
E----------------------------------------------------------------------------|

e----------------------------------------------------------------------------|
B----------------------------------------------------------------------------|
G----------------------------------------------------------------------------|
D-----------17-15-12-12-12-12-14-14-14-14-14-14-15---------------------------|
A---15-15--------------------------------------------------------------------|
E----------------------------------------------------------------------------|

www.myspace.com/lookingtothesummer
comments
We did not receive enough feedback on this tab! Please rate:
print report bad tab
1 2 3 4 5
I want to post or [tab]
guest
You may want to rate the tab now too:
select rating
Please do not post tabs as comments. Select "correction" instead!